Sasquatch

Dragonfly

Sasquatch

tabs

by  PAULLET3

save to print version add songbook text version e-mail correct tuner
chordsukulelecavacokeyboardtabbassdrumsharmonicaflute Guitar Pro
close

there isn't a video lesson for this song

chords

Dragonfly

	  		
tuning: C G C F A D 

 Intro 

D|-------------------------------------------|-------------------------------------| 
A|-------------------------------------------|-------------------------------------| 
F|-------------------------------------------|-------------------------------------| 
C|-------------------------------------------|-------------------------------------| 
G|-------------------------------------------|-------------------------------------| 
C|------10h12-12-12~~---(12)10h12-10h12/-15--|---(12)10h12-12-12--12\5--5hb--3~~---| 

D|-------------------------------------------|-------------------------------------| 
A|-------------------------------------------|-------------------------------------| 
F|-------------------------------------------|-------------------------------------| 
C|-------------------------------------------|-------------------------------------| 
G|------------12-12----------------------15--|-------------------------------------| 
C|--(12)10h12-12-12~~---(12)10h12-10h12/-15--|---(12)10h12-12-12\3--3h5hb--3~~-----| 

    PM 
D|-------------------------------------------|-------------------------------------| 
A|-------------------------------------------|-------------------------------------| 
F|-------------------------------------------|-------------------------------------| 
C|--12--10h12-12-12---(12)10h12-10h12---15---|--(12)10h12-12-12---12\5--5----3-----| 
G|--12--10h12-12-12---(12)10h12-10h12---15---|--(12)10h12-12-12---12\5--5----3-----| 
C|--12--10h12-12-12---(12)10h12-10h12---15---|--(12)10h12-12-12---12\5--5----3-----| 

D|-------------------------------------------|-------------------------------------| 
A|-------------------------------------------|-------------------------------------| 
F|-------------------------------------------|-------------------------------------| 
C|------10h12-12-12---(12)10h12-10h12---15---|--(12)10h12-12-12---12\5--5----3-----| 
G|------10h12-12-12---(12)10h12-10h12---15---|--(12)10h12-12-12---12\5--5----3-----| 
C|------10h12-12-12---(12)10h12-10h12---15---|--(12)10h12-12-12---12\5--5----3-----| 


 Verse 

D|---------------------------------------|--------------------------------------| 
A|---------------------------------------|--------------------------------------| 
F|---------------------------------------|--------------------------------------| 
C|---------------------------------------|--------------------------------------| x4  
G|---10h12-12-12--(12)10h12-10h12---12---|--(12)10h12-12-12---12\5--5----3------| 
C|---10h12-12-12--(12)10h12-10h12---12---|--(12)10h12-12-12---12\5--5----3------| 
  

 Chorus 

D|-----------------------------|----------------------| 
A|-----------------------------|----------------------| 
F|-----------------------------|----------------------| 
C|------12-12-12----12-12-12---|---5-5-5-5------3-3---| x2  
G|------12-12-12----12-12-12---|---5-5-5-5------3-3---| 
C|------12-12-12----12-12-12---|---5-5-5-5-5hbr-3-3---| 

D|----------------------------------------|-------------------------------------| 
A|----------------------------------------|-------------------------------------| 
F|----------------------------------------|-------------------------------------| 
C|---10h12-12-12-------10h12-10h12---15---|--(12)10h12-12-12---12\5--5----3-----| 
G|---10h12-12-12-------10h12-10h12---15---|--(12)10h12-12-12---12\5--5----3-----| 
C|---10h12-12-12-------10h12-10h12---15---|--(12)10h12-12-12---12\5--5----3-----| 

D|----------------------------------------|-------------------------------------| 
A|----------------------------------------|-------------------------------------| 
F|----------------------------------------|-------------------------------------| 
C|---10h12-12-12---(12)10h12-10h12---15---|--(12)10h12-12-12---12\5--5----3-----| 
G|---10h12-12-12---(12)10h12-10h12---15---|--(12)10h12-12-12---12\5--5----3-----| 
C|---10h12-12-12---(12)10h12-10h12---15---|--(12)10h12-12-12---12\5--5----3-----| 


 Verse 

D|---------------------------------------|--------------------------------------| 
A|---------------------------------------|--------------------------------------| 
F|---------------------------------------|--------------------------------------| 
C|---------------------------------------|--------------------------------------| x4  
G|---10h12-12-12--(12)10h12-10h12---12---|--(12)10h12-12-12---12\5--5----3------| 
C|---10h12-12-12--(12)10h12-10h12---12---|--(12)10h12-12-12---12\5--5----3------| 


Chorus 

D|-----------------------------|----------------------| 
A|-----------------------------|----------------------| 
F|-----------------------------|----------------------| 
C|------12-12-12----12-12-12---|---5-5-5-5------3-3---| x2  
G|------12-12-12----12-12-12---|---5-5-5-5------3-3---| 
C|------12-12-12----12-12-12---|---5-5-5-5-5hbr-3-3---| 


 Solo 

D|-----------------------------------------------------------------------------| 
A|----------------------------------------------------12hbr--------------------| 
F|---14~~~---12fb---12hbrp10--------------------10-12-12hbr--12-10~~\----------| 
C|---------------------------12-------12p10-12---------------------------------| 
G|-----------------------------------------------------------------------------| 
C|-----------------------------------------------------------------------------| 

D|-----------------------------------------------------------------------------| 
A|-----------------------------------------------------------------------------| 
F|------------------------5-----7p5p0------------------------------------------| 
C|--------------0h3h5-5/7-------------7p5p0-7p5p0------------------------------| 
G|--------0h3h5-----------------------------------8p5p0------------------------| 
C|--0h3h5----------------------------------------------------------------------| 

D|-----------------------------------------------------------------------------| 
A|-----------------------------------------------------------------------------| 
F|-----------------------------------------------------------------------------| 
C|----------5p3p0-------------------5~~~---------------------------------------| 
G|----------------5p3p0-5p3p0--------------------------------------------------| 
C|----------------------------5p3p0--------------------------------------------| 

D|-------------------------------------------------------------------------------------| 
A|--------------------------------------------13----13-13-13---------------------------| 
F|--12fbrp10----------12fb-12---------10-12fb----12----12-12--12fbrp10-12-12fb--10~~---| 
C|-----------10----10---------12-------------------------------------------------------| 
G|-------------------------------------------------------------------------------------| 
C|-------------------------------------------------------------------------------------| 
                                           (hold  the  bend)    

D|-----------------------------------------------------------------------------| 
A|------------------------------13------------------13-------------------------| 
F|---(guitar fill)--------12fb-----12-12-12brp10----12fbr-10-12-12fb-10~~~-----| 
C|-----------------------------------------------------------------------------| 
G|-----------------------------------------------------------------------------| 
C|-----------------------------------------------------------------------------| 
                            (hold  the  bend)  
  
Chorus 

D|-----------------------------|----------------------| 
A|-----------------------------|----------------------| 
F|-----------------------------|----------------------| 
C|------12-12-12----12-12-12---|---5-5-5-5------3-3---| x2  
G|------12-12-12----12-12-12---|---5-5-5-5------3-3---| 
C|------12-12-12----12-12-12---|---5-5-5-5-5hbr-3-3---| 


 Outro 

D|----------------------------------------|-------------------------------------| 
A|----------------------------------------|-------------------------------------| 
F|----------------------------------------|-------------------------------------| 
C|---10h12-12-12---(12)10h12-10h12---15---|--(12)10h12-12-12---12\5--5----3-----| x3  
G|---10h12-12-12---(12)10h12-10h12---15---|--(12)10h12-12-12---12\5--5----3-----| 
C|---10h12-12-12---(12)10h12-10h12---15---|--(12)10h12-12-12---12\5--5----3-----| 

D|----------------------------------------|------------------------------------------| 
A|----------------------------------------|------------------------------------------| 
F|----------------------------------------|------------------------------------------| 
C|---10h12-12-12---(12)10h12-10h12---15---|--(12)10h12-12-12---12\5--5----3----12\---| last time 
G|---10h12-12-12---(12)10h12-10h12---15---|--(12)10h12-12-12---12\5--5----3----12\---| 
C|---10h12-12-12---(12)10h12-10h12---15---|--(12)10h12-12-12---12\5--5----3----12\---| 



************************************ 

| (n)  Ghost note 
| h    Hammer-on 
| p    Pull-off 
| /    Slide up 
| \    Slide down 
| ~    Vibrato 
| fb   Full bend 
| fbr  Full bend release 
| hb   Half bend 
| hbr  Half bend release 
| PM   Palm mute 

************************************ 
		  

See also:

tabs Deep Purple - Strange kind of woman tabs Deep Purple - Smoke On The Water tabs Deep Purple - Time To Kill tabs Albert Hammond Jr - Gfc tabs Deep Purple - Soldier Of Fortune tabs Ira! - Nucleo De Base
e-chords

Other versions:

tabs Yngwie Malmsteen - Dragonfly tabs Sasquatch - Dragonfly
auto scroll beats size up size down change color hide chords drawings
tab show chords e-chords YouTube Clip e-chords hide all tabs e-chords go to top tab

share