Sasha Sloan

Normal

Sasha Sloan

tabs

by  JESSGOMES

save to print version add songbook text version e-mail correct tuner
chordsukulelecavacokeyboardtabbassdrumsharmonicaflute Guitar Pro
close

there isn't a video lesson for this song

chords

Normal

	  		My video: https://youtu.be/B0bau0G9dRA 

e|-------------------------------------------------------------------------| 
B|--------------------------------------/13--10----------------------------| 
G|----------10--12/14--12/10~-----9-10------------------10--12/14--9/10----| 
D|--10--12--------------------------------------10--12---------------------| 
A|-------------------------------------------------------------------------| 
E|-------------------------------------------------------------------------| 


e|-------------------------------------------------------------------| 
B|-------------------------------------------------13--11--10--------| 
G|----------10--12--14----------10--12--14--9--10~-------------12----| 
D|--10--12--------------10--12---------------------------------------| 
A|-------------------------------------------------------------------| 
E|-------------------------------------------------------------------| 


e|----------------------------------------------| 
B|----------------------------------------------| 
G|--------10--12--14----------10--12--14---9/10-| 
D|10--12--------------10--12--------------------| 
A|----------------------------------------------| 
E|----------------------------------------------| 
		  

See also:

tabs Deep Purple - Black Night tabs Deep Purple - Soldier Of Fortune tabs Deep Purple - Demon's Eye tabs Ira! - Envelheço na Cidade tabs Deep Purple - Smoke on the Water (correct) tabs Ira! - Tarde Vazia (Acústico)
e-chords

Other versions:

tabs Sasha Sloan - Normal
auto scroll beats size up size down change color hide chords drawings
tab show chords e-chords YouTube Clip e-chords hide all tabs e-chords go to top tab

share