Saosin

Translating The Name

Saosin

tabs

by  JOV-CORREA

save to print version add songbook text version e-mail correct tuner
chordsukulelecavacokeyboardtabbassdrumsharmonicaflute Guitar Pro
close

there isn't a video lesson for this song

chords

Translating The Name

	  		

EBGDAD 

Intro 

 
E|---------------------------------------| 
B|---------------------------------------| 
G|---------2-33-2-33-2-------2-33-2-33-2-| 
D|---5555---------------5555-------------| 
A|---5555---------------5555-------------| 
D|---5555---------------5555-------------| 
 

 
E|---------------------------------------------| 
B|---------------------------------------------| 
G|---------2-33-2-33-2-------2-33-2-3-5-3-2-3--| 
D|---1111---------------1111-------------------| 
A|---1111---------------1111-------------------| 
D|---1111---------------1111-------------------| 
 

Verse (00:12) (x2) (not exactly but arpeggiating this notes) 

 
E|--------------------------------------------------------------| 
B|--------------------------------------------------------------| 
G|----0---10----0----0---10----0----0---10----0----0---10----0--| 
D|-----0----0---------0----0---------0----0---------0----0------| 
A|---8--8-----8-----8--8-----8-----8--8-----8-----8--8-----8----| 
D|--------------------------------------------------------------| 
 

 
E|-----------------------------------------------------------| 
B|-----------------------------------------------------------| 
G|----0---8----0----0---8----0----0---8----0----0---8----0---| 
D|-----0---0---------0---0---------0---0---------0---0-------| 
A|---6--6----6-----6--6----6-----6--6----6-----6--6----6-----| 
D|-----------------------------------------------------------| 
 

Chorus (00:36) 

 
E|-----------------------------------------| 
B|-----------------------------------------| 
G|-----------------------------------2h3p2-| 
D|---5-------3-------1-------3-------------| 
A|---5(x12)--3(x12)--1(x12)--3(x12)--------| 
D|---5-------3-------1-------3-------------| 
 

 
E|-----------------------------------------| 
B|-----------------------------------------| 
G|-----------------------------------2h3p2-| 
D|---5-------3-------1-------3-------------| 
A|---5(x12)--3(x12)--1(x12)--3(x12)--------| 
D|--5-------3-------1-------3--------------| 
 

Pre Verse (Intro) (01:00) 

 
E|---------------------------------------| 
B|---------------------------------------| 
G|---------2-33-2-33-2-------2-33-2-33-2-| 
D|---5555---------------5555-------------| 
A|---5555---------------5555-------------| 
D|---5555---------------5555-------------| 
 

 
E|---------------------------------------------| 
B|---------------------------------------------| 
G|---------2-33-2-33-2-------2-33-2-3-5-3-2-3--| 
D|---1111---------------1111-------------------| 
A|---1111---------------1111-------------------| 
D|---1111---------------1111-------------------| 
 

Verse (01:12) (x3) 

 
E|--------------------------------------------------------------| 
B|--------------------------------------------------------------| 
G|----0---10----0----0---10----0----0---10----0----0---10----0--| 
D|-----0----0---------0----0---------0----0---------0----0------| 
A|---8--8-----8-----8--8-----8-----8--8-----8-----8--8-----8----| 
D|--------------------------------------------------------------| 
 

 
E|-----------------------------------------------------------| 
B|-----------------------------------------------------------| 
G|----0---8----0----0---8----0----0---8----0----0---8----0---| 
D|-----0---0---------0---0---------0---0---------0---0-------| 
A|---6--6----6-----6--6----6-----6--6----6-----6--6----6-----| 
D|-----------------------------------------------------------| 
 

Chorus (01:48) 

 
E|-----------------------------------------| 
B|-----------------------------------------| 
G|-----------------------------------2h3p2-| 
D|---5-------3-------1-------3-------------| 
A|---5(x12)--3(x12)--1(x12)--3(x12)--------| 
D|---5-------3-------1-------3-------------| 
 

 
E|-----------------------------------------| 
B|-----------------------------------------| 
G|-----------------------------------2h3p2-| 
D|---5-------3-------1-------3-------------| 
A|---5(x12)--3(x12)--1(x12)--3(x12)--------| 
D|---5-------3-------1-------3-------------| 
 

Intro (x2) (02:12) 

Bridge (02:36) 

 
E|-----------------------------------------| 
B|-----------------------------------------| 
G|--------7---------7---------7---------7--| 
D|---5555-5--555555-5--555555-5--555555-5--| 
A|---5555-5--555555-5--555555-5--555555-5--| 
D|---5555-x--555555-x--555555-x--555555-x--| 
 

 
E|-------------------------------------------------------------| 
B|-------------------------------------------------------------| 
G|-------7-------7------5-------5------3-------3------3------5-| 
D|---555-5--5555-5--333-3--3333-3--111-1--1111-1--111-1--333-3-| 
A|---555-5--5555-5--333-3--3333-3--111-1--1111-1--111-1--333-3-| 
D|---555-x--5555-x--333-x--3333-x--111-x--1111-x--111-x--333-x-| 
 

 
E|-------------------------------------------------------------| 
B|-------------------------------------------------------------| 
G|-------7-------7------5-------5------3-------3------3------5-| 
D|---555-5--5555-5--333-3--3333-3--111-1--1111-1--111-1--333-3-| 
A|---555-5--5555-5--333-3--3333-3--111-1--1111-1--111-1--333-3-| 
D|---555-x--5555-x--333-x--3333-x--111-x--1111-x--111-x--333-x-| 
 

 
E|------------| 
B|---2h3p2h3--| 
G|------------| 
D|------------| 
A|------------| 
D|------------| 
 



that's all ! rate please.. 
		  

See also:

tabs Simon & Garfunkel - Sounds of silence tabs Guns N' Roses - November Rain tabs Chuck Berry - Johnny B. Goode tabs Foo Fighters - Everlong (acústico) tabs John Mayer - Belief tabs Jimi Hendrix Experience - Voodoo Child
e-chords

Other versions:

tabs Saosin - Translating The Name
auto scroll beats size up size down change color hide chords drawings
tab show chords e-chords YouTube Clip e-chords hide all tabs e-chords go to top tab

share