Santana

home > Santana

Wishing It Was Tab

Santana

Difficulty: ExpertExpert

tuner correct add songbook print version text version save to e-mail
chordsukulelecavacokeyboardtabbassdrumsharmonicsflute Guitar Pro
chords

Wishing It Was

Year: 1999 - Album: Supernatural

  		 
Tablature Explanation: 
h=hammer-on 
p=pull-off 
/=slide up or indicates rapid picking 
=slide down 
b=bend « 
^=bend full 
br, ^r=bend &release 
 
Intro 
|-------------10---------------------------------------------- 
|-------10-11----11-10--13-11-10--11-10--10h11-10------------- 
|----12--------------------------------------------12-12------ 
|-12---------------------------------------------------------- 
|------------------------------------------------------------- 
|------------------------------------------------------------- 
                                                                               
 
 
------------------------------------------------------------| 
------------------------------------------------------------| 
------------------------------------------------------------| 
-12-12-12--14-12--14-12----------8-8-10^--10-8-10^--8-------| 
------------------------15----------------------------10----| 
------------------------------------------------------------| 
              
                                                                  
...come near 
|-----10------------------| 
|-13---------------11-----| 
|--------12-12--12--------| 
|-------------------------| 
|-------------------------| 
|-------------------------| 
          
                                                                      
...death bell rings 
|--------------| 
|-8------------| 
|---7----------| 
|-----10-8-----| 
|----------10--| 
|--------------| 
      
 
                                                                          
...tears in me  
|--------6-----| 
|----8-----8---| 
|-/7---7-------| 
|--------------| 
|--------------| 
|--------------| 
       
                                                                         
...life walk by... 
|-----------------------------| 
|-8---------------------------| 
|---7----------------7--------| 
|-----10-8-10-8-10^----8------| 
|------------------------10---| 
|-----------------------------| 
      
                                                                          
...wishing it was  
|---------------------| 
|-8-------------------| 
|---------------------| 
|---10^-10^-10-8------| 
|----------------10---| 
|---------------------| 
       
                                                                         
...wishing it was  
|------------------| 
|-8-6--------------| 
|-7---7-5-7--------| 
|-----------8-5----| 
|------------------| 
|------------------| 
    
                                                                            
...here before 
|---------------------| 
|-8-------------------| 
|---------------------| 
|---10^-10^-10-8------| 
|----------------10---| 
|---------------------| 
    
                                                                            
...death bell rings 
|---------------| 
|-----11-10-----| 
|-----------12--| 
|-/12-----------| 
|---------------| 
|---------------| 
     
                                                                           
...tears in me 
|------------------------------------------------| 
|-11^---11^---11^r-------------------------------| 
|------------------12----------------------------| 
|---------------------1210----------12----------| 
|---------------------------13-10-13----13-10----| 
|------------------------------------------------| 
           
                                                                     
...everyday surprises me 
|-----13-----13-----13-13----13-13--13--13^-------13^---13^-13^-13^-13^r----- 
|-13^----13^----13^-------15------------------------------------------------- 
|---------------------------------------------------------------------------- 
|---------------------------------------------------------------------------- 
|---------------------------------------------------------------------------- 
|---------------------------------------------------------------------------- 
                                                                               
 
 
-10----10-------10---------------------------17br-15------15--15--- 
----13----11-13----13-----------11--------15------------15--18--18- 
----------------------12-12--12------------------------------------ 
------------------------------------------------------------------- 
------------------------------------------------------------------- 
------------------------------------------------------------------- 
                                                                               
 
 
--------------------------------------------------------------- 
-15h18p15--15-------------------------------------------------- 
---------17---17^r-15---15-17-15h17-15h17-17-17-17-15h17-15h17- 
----------------------17--------------------------------------- 
--------------------------------------------------------------- 
--------------------------------------------------------------- 
                                                                               
 
 
-----------------------| 
-----------------------| 
-15--------------------| 
----17-15--------------| 
---------17p15---------| 
--------------18p15---| 
     
                                                                           
interlude 
|----------10---------------------------------------------------| 
|----10-11----11--11--10--13--11--10-10--10------11-------------| 
|-12-----------------------------------------12-----12--10-12---| 
|---------------------------------------------------------------| 
|---------------------------------------------------------------| 
|---------------------------------------------------------------| 
   
                                                                             
 
|------------------------------------------------------------------ 
|-----18------------18-----18-----18----18^---15h17--17p15---15-15- 
|-17^-----------17^----17^----17^----19-------------------17------- 
|------------------------------------------------------------------ 
|------------------------------------------------------------------ 
|------------------------------------------------------------------ 
                                                                               
 
 
-----------------------------------------------------10h13 -| 
-15-15-15-15----------------------8-----11--8-11--11--------| 
-15-15-15-15-17----------------------10---------------------| 
----------------17-17-17-17---------------------------------| 
------------------------------------------------------------| 
------------------------------------------------------------| 
    
                                                                            
solo 
|----------------------18^-18^--18^r-15-------15-15--18p15------- 
|---------------------------------------15-18-------------------- 
|-5^r3-----3----------------------------------------------------- 
|-----5--5------------------------------------------------------- 
|---------------------------------------------------------------- 
|---------------------------------------------------------------- 
                                                                               
 
 
--12b--------12br-12p10--10--------------------10///---10///--10///- 
-----------------------13---13^r-11----11-13^-------13^-----13^----- 
------------------------------------12------------------------------ 
-------------------------------------------------------------------- 
-------------------------------------------------------------------- 
-------------------------------------------------------------------- 
    
                                                                            
 
------10-13-10----10--------------------------------------15-18^--------18^--- 
--13^----------13----13^-13-11-13-----13p11--11-------15--------------------- 
-------------------------------------------12--------------------------------- 
------------------------------------------------------------------------------ 
------------------------------------------------------------------------------ 
------------------------------------------------------------------------------ 
    
                                                                            
 
--15-18^--15-18^--15-18^--15-18^18^r--15h18p15------------ 
-----------------------------------------------18p15------ 
----------------------------------------------------17p15- 
---------------------------------------------------------- 
---------------------------------------------------------- 
---------------------------------------------------------- 
    
                                                                            
 
--------------------------------------------------------15--15----15-18-17--- 
----15////---15///---15/////-/-/-----15----15-18-15h17---------17------------- 
-17^------17^-----17^-------------------15------------------------------------ 
------------------------------------------------------------------------------ 
------------------------------------------------------------------------------ 
------------------------------------------------------------------------------ 
                                                                               
 
 
---18-20-18-20-18-20-18-20-18-20-18-20-18-20^---///////////r-- 
-20-----p--h--p--h--p--h--p--h--p--h--p--h-------------------- 
-------------------------------------------------------------- 
-------------------------------------------------------------- 
-------------------------------------------------------------- 
-------------------------------------------------------------- 
      
                                                                          
 
-20-18-20^--22-18---------15------------------------------| 
------------------20--------18p15--------------15---------| 
----------------------------------18-17-15--------15------| 
-------------------------------------------17--------17---| 
----------------------------------------------------------| 
----------------------------------------------------------| 
       
                                                                         
...out the tears... 
|-------------------------------| 
|-11--10------------------------| 
|---------12-----10-12-10h12-12-| 
|-------------12----------------| 
|-------------------------------| 
|-------------------------------| 
      
                                                                          
...wishing it was  
|-----------------------------------------10--------------------------------- 
|-13^-------r-r-13--13--13--13--13-11-13^----11-13--13---------10h11p10------ 
|------------------------------------------------------12--------------12---- 
|---------------------------------------------------------------------------- 
|---------------------------------------------------------------------------- 
|---------------------------------------------------------------------------- 
                                                                               
 
 
------------------------------------------------------------------------------ 
--11p10p8-11p10p8-11p10p8-8---8----------------------------------------------- 
-------------------------------10p7--------7---------------------------3-5---- 
-----------------------------------10p8------10-8--------------------5-------- 
---------------------------------------10---------10----8h10------/5---------- 
------------------------------***********------------10----------------------- 
    
 
 
----------6-------------------------------------------------------------- 
-8--6--8--6--8/11-11/13-13-15--15-18p15h18-18-18-15-18-18-18-15h17-17-17- 
-7--7--7----------------------------------------------------------------- 
------------------------------------------------------------------------- 
------------------------------------------------------------------------- 
------------------------------------------------------------------------- 
      
                                                                          
 
-------15--18-15-18-15-18-15-18^-------15-18^r-----------15---- 
-18-18-------p--h--p--h--p--h------------------20-20--18----18- 
--------------------------------------------------------------- 
--------------------------------------------------------------- 
--------------------------------------------------------------- 
--------------------------------------------------------------- 
        
                                                                        
 
----------------------------------------| 
-15h18p15--15----------------------18---| 
---------17--17^r-15-17--17-15-17^------| 
----------------------------------------| 
----------------------------------------| 
----------------------------------------| 
                                                                               
 
 
|-------------------13-12-----12--------------------------------------------- 
|-13^r-11-----13h15--------13----15-13-15--10-13-10h11-10-------------------- 
|---------------------------------------------------------12-10-------------- 
|---------------------------------------------------------------12p10-------- 
|--------------------------------------------------------------------13p10--- 
|---------------------------------------------------------------------------- 
         
                                                                       
 
--------------------------| 
--------------------------| 
-------------12//////////-| 
-------12h15--------------| 
-13h15--------------------| 
--------------------------| 
         
                                                                       
 
------------------------------------------------------------------ 
-15////---15////---15////---15////--16---------------------------- 
-------17^------17^------17^---------------------------14///15--- 
---------------------------------------14///15///17///------------ 
------------------------------------------------------------------ 
------------------------------------------------------------------ 
        
                                                                        
 
-18^18^--18^--18^--18^--15-18^18^r-15h18p15--15-15-15------------------------- 
-------------------------------------------18----------18p15---15------------- 
------------------------------------------------------------17^--17^-17p15---- 
--------------------------------------------------------------------------17-- 
------------------------------------------------------------------------------ 
------------------------------------------------------------------------------ 
                                                                               
 
 
-----------------| 
-15-15-15-15----| 
-15-15-15-15----| 
-----------------| 
-----------------| 
-----------------| 
 
 
_______________________________________________________ 
Contribuição: Max Stabile([email protected]) 

	  

Search Paypal
auto scroll beats size up size down change color hide chords drawings
tab show chords e-chords YouTube Clip e-chords hide all tabs e-chords go to top tab