Santana

home > Santana

Victory Is Won Tab

Santana

Difficulty: ExpertExpert

tuner correct add songbook print version text version save to e-mail
chordsukulelecavacokeyboardtabbassdrumsharmonicsflute Guitar Pro
chords

Victory Is Won

Year: 2002 - Album: Shaman

  		|---------------------------------------------------------------------------------------|
|----------------10-10-----8s10s8---------------------------------10-10--8s10s8---------|
|--9-9----12-12--------------------7-7s9-9-------9-9-9----12-12----------------7-7s9-9--|  
|---------------------------------------------------------------------------------------|
|---------------------------------------------------------------------------------------|
|---------------------------------------------------------------------------------------|



|--------------------------------------------|
|--------------------------------------------|
|-8s10s8-------------------------------------|
|---------0-7s9s7-7h9----7h9-7---------------|
|------------------------------7-7s10-10-----|
|--------------------------------------------|

|---------------------------------------------------------------------------------------|
|----------------10-10-----8s10s8---------------------------------10-10--8s10s8---------|
|--9-9----12-12--------------------7-7s9-9-------9-9-9----12-12----------------7-7s9-9--|  
|---------------------------------------------------------------------------------------|
|---------------------------------------------------------------------------------------|
|---------------------------------------------------------------------------------------|


|--------------------------------------------|
|--------------------------------------------|
|-8s10s8-------------------------------------|
|---------0-7s9s7-7h9----7h9-7---------------|
|------------------------------7-7s10-10-----|
|--------------------------------------------|


|-----------------------------------------------------------------------------------8-10-10s12-12-|
|-----12s13-12-12--10-8s10---8s10s8--------------12s13-12-12--10-10-13-10--12-12-12---------------|
|-10---------------------------------7-7s9-9--10--------------------------------------------------|
|-------------------------------------------------------------------------------------------------|
|-------------------------------------------------------------------------------------------------|
|-------------------------------------------------------------------------------------------------|



|--------------------------------------------|
|--------------------------------------------|
|-8s10s8-------------------------------------|
|---------0-7s9s7-7h9----7h9-7---------------|
|------------------------------7-7s10-10-----|
|--------------------------------------------| 

Aqui  a parte do orgo


|-----------------------------------------------------------------------------------8-10-10s12-12-|
|-----12s13-12-12--10-8s10---8s10s8--------------12s13-12-12--10-10-13-10--12-12-12---------------|
|-10---------------------------------7-7s9-9--10--------------------------------------------------|
|-------------------------------------------------------------------------------------------------|
|-------------------------------------------------------------------------------------------------|
|-------------------------------------------------------------------------------------------------|

Solo Principal...



Final


|--------------------------------------------|
|--------------------------------------------|
|-8s10s8-------------------------------------|
|---------0-7s9s7-7h9----7h9-7---------------|
|------------------------------7-7s10-10-----|
|--------------------------------------------|
	  

Search Paypal
auto scroll beats size up size down change color hide chords drawings
tab show chords e-chords YouTube Clip e-chords hide all tabs e-chords go to top tab