Santana

home > Santana

Oye Como Va Tab

Santana

Difficulty: EasyEasy

by peter

tuner correct add songbook print version text version save to e-mail
chordsukulelecavacokeyboardtabbassdrumsharmonicsflute Guitar Pro
chords

Oye Como Va

Year: 1990 - Album: Ultimate Santana

(Santana)

  		Intro: Am 
 
(Am D) 
e|--------7-8-10--7-------| 
B|-10--10-----------8h10--| 
G|------------------------| Repeat 4X 
D|------------------------| 
A|------------------------| 
E|------------------------| 
 
(Am D) 
 
Am          D 
Oye como va   mi ritmo 
Am             D 
Bueno pa gosar   mulata 
 
 
 
Am          D 
Oye como va   mi ritmo 
Am             D 
Bueno pa gosar   mulata 
 
(Am D) 
e|--------7-8-10--7-------| 
B|-10--10-----------8h10--| 
G|------------------------| Repeat 4X 
D|------------------------| 
A|------------------------| 
E|------------------------| 
 
 
Solo 1: 
e|-----------------------------------------------------------------| 
B|-------8---8-7------------------------8---8-7--10----------------| 
G|-----9---9------7----5h7-7p5--------9---9------------------------| 
D|-7---------------------------7--7--------------------------------| 
A|-----------------------------------------------------------------| 
E|-(0:57)------------------------(1:01)----------------------------| 
 
e|-----------------------------------------------------------------| 
B|-------8---8-7----------------------8-10--8-7--10   b   13-------| 
G|-----9---9------7--5h7-7p5--------9------------(slow bend)-------| 
D|-7-------------------------7---10--------------------------------| 
A|-----------------------------------------------------------------| 
E|-(1:05)----------------------(1:08)------------------------------| 
 
e|-8-8-5-5-8-5--8--5----5------------8-8-5-5-8-5---5---------------| 
B|--------------------7-------------------------/7-----------------| 
G|------------------------5h7-7p5---------------------7b8-5--------| 
D|--------------------------------7--------------------------------| 
A|-----------------------------------------------------------------| 
E|-(1:12)--------------------------(1:16)--------------------------| 
 
e|-8-8-5-5-8-5--8--5----5------------8-8-5-5-8-5---5~/12-----------| 
B|--------------------7--------------------------7-----------------| 
G|------------------------5h7-5------------------------------------| 
D|------------------------------7p6--------------------------------| 
A|-----------------------------------------------------------------| 
E|-(1:19)--------------------------(1:23)--------------------------| 
 
e|-8-5--8-5--8-5--8-5--8-5--8-5--8-5--8-5--------------------------| 
B|-----------------------------------------------------------------| 
G|-----------------------------------------5h7---5h7-7p5-----------| 
D|-------------------------------------------------------7---------| 
A|-----------------------------------------------------------------| 
E|-(1:27)----------------------------------------------------------| 
 
e|-----------------------------------------------------------------| 
B|---------5---5-7---------------------5---5-7---------------------| 
G|-5-555-5---5-----------------5-555-5---5-------------------------| 
D|-(weird)---------4--5--6--7-------------------4--5--6--7---------| 
A|-----------------------------------------------------------------| 
E|-(1:34)----------------------(1:38)------------------------------| 
 
e|-----------------------------------------------------------------| 
B|---------5---5-7-------------------------------------------------| 
G|-5-555-5---5-----------------------------------------------------| 
D|------------------4--5--6--7-------------------------------------| 
A|-----------------------------------------------------------------| 
E|-(1:42)----------------------------------------------------------| 
 
 
Solo 2: 
e|--5/12---8-8-5-5-8-5--8--5----5-------------8-8-5-5-8-5----------| 
B|----------------------------7---------------------------7h10-----| 
G|--------------------------------5h7-7p5--------------------------| 
D|----------------------------------------7------------------------| 
A|-----------------------------------------------------------------| 
E|-(3:20)-------------------------------------(3:26)---------------| 
 
e|-8-8-5-5-8-5--8--5----5------------8-8-5-5-8-5----5~/12----------| 
B|--------------------7--------------------------/7----------------| 
G|------------------------5h7-7p5----------------------------------| 
D|--------------------------------7--------------------------------| 
A|-----------------------------------------------------------------| 
E|-(3:29)----------------------------(3:33)------------------------| 
 
e|-17b18r17b18r17-12-/14--17---------------------------------------| 
B|---------------------------15------------------------------------| 
G|--------------------------------12b14---12-b14---12-b14---12-b14-| 
D|-----------------------------------------------------------------| 
A|-----------------------------------------------------------------| 
E|-(3:37)------------------------(3:40)----------------------------| 
 
e|-----------------------------------------------------------------| 
B|-----------10----------------------------------------------------| 
G|-12-b14-12----12-------------12-----------------------12/13------| 
D|-----------------12-10----10-12-10----12/13---12/13---12/13------| 
A|-----------------------12----------12----------------------------| 
E|-(3:43)----------------------------------------------------------| 
 
e|-----------------------------------------------------------------| 
B|-----------------------------------------------------------------| 
G|----------------12-----------------------------------------------| 
D|-12/13-10----10-12-10---------10/12-12p10-------10-12-12p10-10-10| 
A|----------12----------12--/12-10/12-12p10-12p10-10-12-12p10-10-10| 
E|-(3:48)-----------------------(3:51)------12p10------------------| 
 
e|-8-5--8-5--8-5--/12-5--8-5-8\5--8-5--88-5--8-5--8-5--8-5-8-5-----| 
B|-----------------------------------------------------------------| 
G|-----------------------------------------------------------------| 
D|-----------------------------------------------------------------| 
A|-----------------------------------------------------------------| 
E|-(3:55)----------------------------------------------------------| 
 
e|-8p5-8-8p5-8-5-8-5-----------------------------------------------| 
B|-----------------------------------------------------------------| 
G|-----------------------------------------------------------------| 
D|-----------------------------------------------------------------| 
A|-----------------------------------------------------------------| 
E|-(4:03)----------------------------------------------------------| 
 

	  

Full key step upFull key step up
Half key step upHalf key step up
Half key step downHalf key step down
Full key step downFull key step down
Search Paypal
auto scroll beats size up size down change color hide chords drawings
tab show chords e-chords YouTube Clip e-chords hide all tabs e-chords go to top tab