Santana

home > Santana

Nothing At All Tab

Santana

Difficulty: BeginnerBeginner

tuner correct add songbook print version text version save to e-mail
chordsukulelecavacokeyboardtabbassdrumsharmonicsflute Guitar Pro
chords

Nothing At All

Year: 2002 - Album: Shaman

  		 
Intro 
 
E-0---2---4---5-----5--4--2---4--5---4--5----2--4---5--7--- 
B---------------------------------------------------------- 
G---------------------------------------------------------- 
D---------------------------------------------------------- 
A---------------------------------------------------------- 
E---------------------------------------------------------- 
                          Repeat until "from knowing that" 
E--5---4--2---2--2-----2-|-3----3--3----3----|-------------- 
B-------------------3----|-3----2--3----2----|-------------- 
G------------------------|-3----3--3----3----|-------------- 
D------------------------|-5----0--5----0----|-------------- 
A------------------------|-5-------5---------|-------------- 
E------------------------|-3-------3---------|-------------- 
 
 
E-2----4---5---7--5---4--5---4----4--2----2--4--2--1------- 
B---------------------------------------------------------- 
G---------------------------------------------------------- 
D---------------------------------------------------------- 
A---------------------------------------------------------- 
E---------------------------------------------------------- 
 
 
 
Verse riff 
E--3--3-3--3---3--3--3---3--------------------------------- 
B--3--3-3--2---3--3--3---2--------------------------------- 
G--3--3-3--3---3--3--3---3--------------------------------- 
D--5--5-5--0---5--5--5---0--------------------------------- 
A--5--5-5------5--5--5------------------------------------- 
E--3--3-3------3--3--3------------------------------------- 
 
 
 
 Letra 
-=====- 
 
I am a victim of my time 
A produce of my age 
There?s no choosing my direction 
I was a holy man but now 
With all my trials behind me 
I am weak in my conviction 
 
And so I walk to try to get away 
Knowing that someday I will finally have to face 
The fear that will come from knowing that 
The one thing I had left was you 
And now you?re gone 
 
You were a victim of my crimes 
A product of my rage 
You were a beautiful distraction 
I kept you locked away outside 
Let misery provide 
And now I am ashamed 
 
And so I walk to try to find a space 
Where I can be alone to live with my mistakes 
And the fear that will come 
From knowing that the one thing 
I had left was you 
And now you?re gone 
 
Chorus 
Is there nothing at all 
That i can do to turn your heart 
Is there nothing to lean on 
That could help erase the scars 
Te quiero ? me quiero 
And I could use a little strength before I fall 
Is there nothing at all 
 
I am victim of my time 
A product of the age 
You alone are my obsession 
You were the one I left behind 
You?ve been heavy on my mind 
It?s been a lonely road I?ve traveled 
 
And so I walk to try to get away 
Knowing that someday I will finally have to face 
The fear that will come from knowing that 
The one thing I had left was you  
And now you?re gone 
 
Chorus 
Is there nothing at all 
That I can do to turn your heart 
Is there nothing to lean on 
That cold help erase the scars 
Te quiero ? me quiero 
And I could use a little strength before I fall 
Is there nothing at all 

	  

Search Paypal
auto scroll beats size up size down change color hide chords drawings
tab show chords e-chords YouTube Clip e-chords hide all tabs e-chords go to top tab