Santana

home > Santana

Moon Flower Tab

Santana

Difficulty: ExpertExpert

by renejunior

tuner correct add songbook print version text version save to e-mail
chordsukulelecavacokeyboardtabbassdrumsharmonicsflute Guitar Pro
chords

Moon Flower

  		 


SECTION 1 
********** 
e|-------------------|-----------------|--------------------|-------------------| 
B|-------15-13-11----|-15-13-11--------|--------------------|-------13-------15-| 
G|----14----------14-|----------14--12-|-------12--------14-|-14-15----15-14----| 
D|-12----------------|-----------------|-14-15-----15-14----|-------------------| 
A|-------------------|-----------------|--------------------|-------------------| 
E|-------------------|-----------------|--------------------|-------------------| 

00:16 
e|-------------------------|----------------------|-------------------| 
B|---------h-----------h---|---------h------------|-------------------|repeat 
G|-12-14-14-15-14-12-12-14-|----12-12-14-12----12-|-------12----------| all 
D|-------------------------|-15-------------15----|-14-15----15-11-12-|  above 
A|-------------------------|----------------------|-------------------|   again 
E|-------------------------|----------------------|-------------------| 



00:47                                             00:58 
e|-------------s-|-13-12-----b----h------|-------|----------------------| 
B|-------13-15-\-|-------15-15--13-15-13-|--br---|---------------h------| 
G|-14-15---------|-----------------------|-14-12-|-------12-14-14-15-14-| 
D|---------------|-----------------------|-------|-14-15----------------| 
A|---------------|-----------------------|-------|----------------------| 
E|---------------|-----------------------|-------|----------------------| 

01:02 
e|-------------|-15-13-12-13-15--brb----------h------h-----h------|------------| 
B|-------13-15-|----------------15----13----13-15--13-15-13-15-13-|------------| 
G|-14-15-------|-------------------------14-----------------------|-12---------| 
D|-------------|--------------------------------------------------|----15-14---| 
A|-------------|--------------------------------------------------|------------| 
E|-------------|--------------------------------------------------|------------| 


e|-------------------| 
B|-------------------| 
G|-------12----------| 
D|-14-15----15-11-12-| 
A|-------------------| 
E|-------------------| 


---------------------------------------- 
01:18 
SECTION 1 - Play Again 1 time 
********** 
---------------------------------------- 


01:47 
e|------------------------------------|---------------------------------------|----------| 
B|--------------------------15--------|---p--------------------------------15-|---h------| 
G|-14---15-14-12--14-15-14------14-12-|-15-12-15-14--15-14-12-----15-15-14----|-12-14-12-| 
D|------------------------------------|------------------------14-------------|----------| 
A|------------------------------------|---------------------------------------|----------| 
E|------------------------------------|---------------------------------------|----------| 

02:02 
e|-----------------------------------------|----------------|--------------------|------------------| 
B|---------------h-------------------------|----------------|----15--------17----|----15----17------| 
G|-12-12-12-12-12-14---p-------------------|-------------14-|-14----14--14----14-|-14---14----14-14-| 
D|-------------------15-12-15-12-----------|----12-14-15----|--------------------|------------------| 
A|-----------------------------------------|----------------|--------------------|------------------| 
E|--------------------------------15-13-15-|-15-------------|--------------------|------------------| 

02:10 
e|--b---b---b---b---br-------|----------------------------|----------|----------|----------|----------| 
B|-17--17--17--17--17--15--b-|-15-------------------------|----------|----------|----------|----------| 
G|------------------------17-|----17-14-------------------|----------|----------|----------|----------| 
D|---------------------------|----------17-15----17-15----|-15-17-17-|-15-17-17-|-15-17-17-|-15-17-17-| 
A|---------------------------|----------------17-------17-|----------|----------|----------|----------| 
E|---------------------------|----------------------------|----------|----------|----------|----------| 

                                                  02:21 
e|----------|------------------------------------|--b---b---b---b---b---b---b---br-------| 
B|----------|-------15---------------------------|-18--18--18--18--18--18--18--18--15--b-| 
G|----------|-----b----17-14---------------p-----|------------------------------------17-| 
D|-15-17-17-|-15-17----------17-15----17-17-15---|---------------------------------------| 
A|----------|----------------------17---------17-|---------------------------------------| 
E|----------|------------------------------------|---------------------------------------| 

e|-----------------| 
B|-15--------------| 
G|----17-14--------| 
D|----------17-15--| 
A|-----------------| 
E|-----------------| 

e|-----------------------|---p--p------|---p--p------|---p--p------|---p--p------|---p--p------| 
B|-------18-17-----18-17-|-18-17-15-18-|-18-17-15-18-|-18-17-15-18-|-18-17-15-18-|-18-17-15-18-| 
G|---s-------------------|-------------|-------------|-------------|-------------|-------------| 
D|-17\19--------19-------|-------------|-------------|-------------|-------------|-------------| 
A|-----------------------|-------------|-------------|-------------|-------------|-------------| 
E|-----------------------|-------------|-------------|-------------|-------------|-------------| 

fast and constant - Tricky 
e|-----p--p---|-----p--p---|-----p--p---|-----p--p---|-----p--p---|-----p--p---| 
B|18-18-17-15-|18-18-17-15-|18-18-17-15-|18-18-17-15-|18-18-17-15-|18-18-17-15-| 
G|------------|------------|------------|------------|------------|------------| 
D|------------|------------|------------|------------|------------|------------| 
A|------------|------------|------------|------------|------------|------------| 
E|------------|------------|------------|------------|------------|------------| 


e|-------------------------------| 
B|18-17-15--18-17-18-15-18-17-18-| 
G|-------------------------------| 
D|-------------------------------| 
A|-------------------------------| 
E|-------------------------------| 


02:36 
     s            p                            s 
e|-12\17--17-18-18-17-15-|-20-18-17-17-17-18-17\-|---s---------15----13----13----10-| 
B|-----------------------|-----------------------|-15\17-17-17----15----14----12----| 
G|-----------------------|-----------------------|----------------------------------| 
D|-----------------------|-----------------------|----------------------------------| 
A|-----------------------|-----------------------|----------------------------------| 
E|-----------------------|-----------------------|----------------------------------| 

02:45   p  p             p  p             p  p             p  p          p  p                             
e|-13-13-12-10-|-13-13-13-12-10-|-13-13-13-12-10-|-13-13-13-12-10-|-13-13-12-10-| 
B|-------------|----------------|----------------|----------------|-------------| 
G|-------------|----------------|----------------|----------------|-------------| 
D|-------------|----------------|----------------|----------------|-------------| 
A|-------------|----------------|----------------|----------------|-------------| 
E|-------------|----------------|----------------|----------------|-------------| 

        p  p          p  p          p  p          p  p          p  p      
e|-13-13-12-10-|-13-13-12-10-|-13-13-12-10-|-13-13-12-10-|-13-13-12-10-| 
B|-------------|-------------|-------------|-------------|-------------| 
G|-------------|-------------|-------------|-------------|-------------| 
D|-------------|-------------|-------------|-------------|-------------| 
A|-------------|-------------|-------------|-------------|-------------| 
E|-------------|-------------|-------------|-------------|-------------| 

02:49 
Not Sure if this is the bass or guitar, so I,ve tabbed it for guitar, sounds like a guitar too me. 
e|---------------------------| 
B|---------------------------| 
G|-------------------7-6-9-7-| 
D|-------5---7-5-8-7---------| 
A|-5-8-7---8-----------------| 
E|---------------------------| 

02:55                 h  p 
e|-------------|-13-12-13-12--b-----------h------|-------------|----------------------| 
B|-------13-15-|-------------15---13----13-15-13-|---h--p------|---------------h------| 
G|-14-15-------|---------------------14----------|-14-15-14-12-|-------12-14-14-15-14-| 
D|-------------|---------------------------------|-------------|-14-15----------------| 
A|-------------|---------------------------------|-------------|----------------------| 
E|-------------|---------------------------------|-------------|----------------------| 


e|-------------|-15-13-12-13-15--b-------------h------h------|----------------|-------------------| 
B|-------13-15-|----------------15--13-13----13-15--13-15-13-|---h--p---------|-------------------| 
G|-14-15-------|--------------------------14-----------------|-12-14-12-------|-------12----------| 
D|-------------|---------------------------------------------|----------15-14-|-14-15----15-11-12-| 
A|-------------|---------------------------------------------|----------------|-------------------| 
E|-------------|---------------------------------------------|----------------|-------------------| 



---------------------------------------- 
03:26 
SECTION 1 - Play Again 1 time 
********** 
---------------------------------------- 

03:49 
e|-------------------------|----------------------|-------------------| 
B|---------h-----------h---|---------h------------|-------------------| 
G|-12-14-14-15-14-12-12-14-|----12-12-14-12----12-|-------12----------| 
D|-------------------------|-15-------------15----|-14-15----15-11-12-|  
A|-------------------------|----------------------|-------------------|   
E|-------------------------|----------------------|-------------------|X2 

04:05                                                                     04:15 
e|----------------------|-------------------------------------------15---|--------------| 
B|----------------------|----15--------17--------18----17--------18------|---------b----| 
G|-------12-15-12-15-14-|-14----14--14----14--14----14----14--14------14-|----14--12-12-| 
D|-14-15----------------|------------------------------------------------|--12----------| 
A|----------------------|------------------------------------------------|-x------------| 
E|----------------------|------------------------------------------------|--------------| 

e|--------------------| 
B|-----------------15-| 
G|-15-12-15-15-14-----| 
D|--------------------| 
A|--------------------| 
E|--------------------| 
                              
e|--------------------------|----------------|----------------| 
B|--brb----------------b----|---p---------15-|----------------| 
G|-12---12---15-14-15-12-12-|-15-12-15-14----|-12---h---12----| 
D|--------------------------|----------------|----12-15----15-| 
A|--------------------------|----------------|----------------| 
E|--------------------------|----------------|----------------| 

04:29 
e|----------|----------|----------|----------|----------|----------|----------|----------| 
B|----------|----------|----------|----------|----------|----------|----------|----------| 
G|----------|----------|----------|----------|----------|----------|----------|----------| 
D|---h---15-|---h---15-|---h---15-|---h---15-|---h---15-|---h---15-|---h---15-|---h---15-| 
A|-15-17----|-15-17----|-15-17----|-15-17----|-15-17----|-15-17----|-15-17----|-15-17----| 
E|----------|----------|----------|----------|----------|----------|----------|----------| 

e|-------------------| 
B|-------------------| 
G|-------------------| 
D|-------------------| 
A|---s--------s---15-| 
E|-17\15-13-15\17----| 


e|-----------------------------------------------------------------------------------------| 
B|------h-------15---------------15--------15--------15-----15-----15-----15-----15-----15-| 
G|------h---------h------h---------h---------h---------h------h------h------h------h-------| 
D|----15-17-----15-17--15-17-15--15-17-15--15-17-15--15-17--15-17--15-17--15-17--15-17--15-| 
A|-17-15-17--17----------------------------------------------------------------------------| 
E|-----------------------------------------------------------------------------------------| 

04:41  fade out......................................... 
e|---------br-------------------------|-----------------------------------------------| 
B|--b-----17--15-15-----s------s------|---p-----------------------p-----------b-------| 
G|-17-----------------12\14--12\14-12-|-15-12-15-14--15-12------15-12-15-14--14-14-12-| 
D|------------------------------------|----------------------15-----------------------| 
A|------------------------------------|-----------------------------------------------| 
E|------------------------------------|-----------------------------------------------|  
	  

Search Paypal
auto scroll beats size up size down change color hide chords drawings
tab show chords e-chords YouTube Clip e-chords hide all tabs e-chords go to top tab