Santana

home > Santana

Feels Like Fire Tab

Santana

Difficulty: ExpertExpert

tuner correct add songbook print version text version save to e-mail
chordsukulelecavacokeyboardtabbassdrumsharmonicsflute Guitar Pro
chords

Feels Like Fire

Year: 2002 - Album: Shaman

  		 
INTRO: 
e|------------------------------7--7-7~~~--| 
B|----------------------------7------------| 
G|-6h8~~~--6-8--9p8h9~----8-9--------------| 
D|-----------------------------------------| 
A|-----------------------------------------| 
E|-----------------------------------------| 
 
e|-11--7-7-7--9------------------------7-7--| 
B|--------------9~-9~-9~-9~------9-7-9------| 
G|------------------------------------------| 
D|------------------------------------------| 
A|------------------------------------------| 
E|------------------------------------------| 
 
e|-7-7-----7----7-7-----7h9h11--|-7-7-----7---7-7-7-7--9------| 
B|-----9-7---9------9-7---------|-----9-7---9------------9-9--| 
G|------------------------------|-----------------------------| 
D|------------------------------|-----------------------------| 
A|------------------------------|-----------------------------| 
E|------------------------------|-----------------------------| 
 
e|-11--7-7-7--9------------------------7-7--| 
B|--------------9~-9~-9~-9~------9-7-9------| 
G|------------------------------------------| 
D|------------------------------------------| 
A|------------------------------------------| 
E|------------------------------------------| 
 
e|-7-7-----7----7-7-----7h9h11--|-7-7-----7---7-7-7-7--9------| 
B|-----9-7---9------9-7---------|-----9-7---9------------9-9--| 
G|------------------------------|-----------------------------| 
D|------------------------------|-----------------------------| 
A|------------------------------|-----------------------------| 
E|------------------------------|-----------------------------| 
 
1st VERSE: 
 
"I'm telling you it's over, 
e|------------------------------------| 
B|------------------------------------| 
G|------------------------------------| 
D|----------------------------9-------| 
A|-----------------------9h11---11p9--| 
E|------------------------------------| 
 
 Now there's an angel 
 Holding me 
 My way's easy 
 
 Even if you're fallen 
e|------------------------------| 
B|------------------------------| 
G|------------------------------| 
D|------------------------9-----| 
A|-------------------9h11---11--| 
E|------------------------------| 
 
 Oh you're struggling 
e|-------------------------------------| 
B|-------------------------------------| 
G|-------------------6h8--6-6-4-6h8-6--| 
D|-------------------------------------| 
A|-------------------------------------| 
E|-------------------------------------| 
 
 There's still beauty 
 In what we do". 
 
 
PRECHORUS: 
 
"So qué será 
 Let's go sailing on 
 There's a wise man 
e|----------------7--| 
B|-9-----9--9p8------| 
G|-------------------| 
D|-------------------| 
A|-------------------| 
E|-------------------| 
 
 In every fool". 
e|-------------------------| 
B|-------------------------| 
G|-----------------8-9--8--| 
D|------------9h11---------| 
A|-------------------------| 
E|-------------------------| 
 
CHORUS: 
 
  "I say come back, 
e|----------------| 
B|----------------| 
G|-8h11-----------| 
D|---------9h11---| 
A|----------------| 
E|----------------| 
 
 Come in from the cold, 
 Into the warm, 
e|-------------------------| 
B|-------------------------| 
G|-----------------8-9--8--| 
D|------------9h11---------| 
A|-------------------------| 
E|-------------------------| 
 
 I feel like fire, 
 Guiding   you back home, 
e|-----------------------| 
B|-----------------------| 
G|-11h13-11--------------| 
D|----------13---11---9--| 
A|-----------------------| 
E|-----------------------| 
 
               As darkness falls". 
e|-----------------------7-----7--| 
B|------9-9-----9--7--9-----7-----| 
G|-8h11------11-------------------| 
D|--------------------------------| 
A|--------------------------------| 
E|--------------------------------| 
 
e|-7-7-----7----7-7-----7h9h11--|-7-7-----7---7-7-7-7--9------| 
B|-----9-7---9------9-7---------|-----9-7---9------------9-9--| 
G|------------------------------|-----------------------------| 
D|------------------------------|-----------------------------| 
A|------------------------------|-----------------------------| 
E|------------------------------|-----------------------------| 
 
2nd VERSE: 
 
"So everyone stands in line, 
e|--------------------------------------| 
B|--------------------------------------| 
G|--------------------------------------| 
D|------------------------------9-------| 
A|-------------------------9h11---11p9--| 
E|--------------------------------------| 
 
 Cos they wanna stay alive, 
 To wait alone, 
 No dog no bone, 
e|---------------------------------| 
B|---------------------------------| 
G|------------------8h9--8-8--6-8--| 
D|-------------9h11----------------| 
A|---------------------------------| 
E|---------------------------------| 
 
 And then you find it's over, 
e|------------------------------------| 
B|------------------------------------| 
G|------------------------------------| 
D|------------------------------9-----| 
A|-------------------------9h11---11--| 
E|------------------------------------| 
 
  Still it tears your heart, 
  To slip away, 
e|--------------| 
B|--------------| 
G|------9p8~~~--| 
D|--------------| 
A|--------------| 
E|--------------| 
 
  From the crowd". 
e|--------------------| 
B|--------------------| 
G|---------------6b8--|---->Slow bend 
D|--------------------| 
A|--------------------| 
E|--------------------| 
 
"But if you have, 
  What it takes, 
e|---------------| 
B|---------------| 
G|-8----6---4----| 
D|---------------| 
A|---------------| 
E|---------------| 
 
  To return to where, 
e|-------------------| 
B|-------------------| 
G|-6-8--9------------| 
D|-------------------| 
A|-------------------| 
E|-------------------| 
 
  All the world, 
e|------------------| 
B|-------------7-7--| 
G|-9p8--6---8-------| 
D|------------------| 
A|------------------| 
E|------------------| 
 
 Knows your name". 
e|---------------7-7-7----------------------------| 
B|---------------------9-9--9-9-9~--9-9-9-9--7----| 
G|---------------------------------------------8--| 
D|------------------------------------------------| 
A|------------------------------------------------| 
E|------------------------------------------------| 
 
2nd PRECHORUS: 
 
 "Then qué será,  let's go sailing on, 
e|--------------|-----------------------| 
B|--------------|-----------------------| 
G|------6--8----|----------6----8----9--| 
D|-9----------9-|-6-----9---------------| 
A|--------------|-----------------------| 
E|--------------|-----------------------| 
 
  There's a wise man, in every fool". 
e|-------------------|------------------------------------------| 
B|----------------7--|--------------7---------------------------| 
G|-9------9--9p8-----|----------------6h8-6h8-8--6-8-6----------| 
D|-------------------|---------------------------------9-6------| 
A|-------------------|-------------------------------------9-6--| 
E|-------------------|------------------------------------------| 
 
2nd CHORUS: 
 
 "I say come back,  come in from the cold, 
e|----------------|-----------------------| 
B|----------------|--7/9-7----------------| 
G|-8h11-----------|----------6h8---6------| 
D|-------9h11-----|--------------------9--| 
A|----------------|-----------------------| 
E|----------------|-----------------------| 
   
  Into the warm". 
e|---------------------------7-7~-7h9--| 
B|---------------------7-7h9-----------| 
G|---------------8-6-8-----------------| 
D|-------------------------------------| 
A|-------------------------------------| 
E|-------------------------------------| 
 
  "I feel like fire, guiding you back home, 
e|----------------|-----------------------| 
B|----------------|--7/9-7----------------| 
G|-8h11-----------|----------6h8---6------| 
D|-------9h11-----|--------------------9--| 
A|----------------|-----------------------| 
E|----------------|-----------------------| 
 
  As darkness falls". 
e|--------------------------------------------------------| 
B|-------------12-12-12-12-12-12-12--12-12----------------| 
G|-------------11-11-11-11-11-11-11--11-11-13-11----------| 
D|-----------------------------------------------13-11-9--| 
A|--------------------------------------------------------| 
E|--------------------------------------------------------| 
 
 "I say come home,  leave it all behind, 
e|----------------|-----------------------| 
B|----------------|--7/9-7----------------| 
G|-8h11-----------|----------6h8---6------| 
D|-------9h11-----|--------------------9--| 
A|----------------|-----------------------| 
E|----------------|-----------------------| 
 
 And settle down". 
e|-------------------------| 
B|-------------------------| 
G|-----------------8-9--8--| 
D|------------9h11---------| 
A|-------------------------| 
E|-------------------------| 
 
"I feel my love,   can give me what I want, 
e|----------------|------------------------| 
B|----------------|------7/9-7-------------| 
G|-8h11-----------|------------------------| 
D|-------9h11-----|------------------------| 
A|----------------|------------------------| 
E|----------------|------------------------| 
 
e|-7-7-----7----7-7-----7h9h11--|-7-7-----7---7-7-7-7--9------| 
B|-----9-7---9------9-7---------|-----9-7---9------------9-9--| 
G|------------------------------|-----------------------------| 
D|------------------------------|-----------------------------| 
A|------------------------------|-----------------------------| 
E|------------------------------|-----------------------------| 
 
  For all time". 
 
SOLO: 
e|------------------------------7--7-7~~~--| 
B|----------------------------7------------| 
G|-6h8~~~--6-8--9p8h9~----8-9--------------| 
D|-----------------------------------------| 
A|-----------------------------------------| 
E|-----------------------------------------| 
 
e|-11--7-7-7--9-------------------7h9--| 
B|--------------9~-9~--9-9--9-9-9------| 
G|-------------------------------------| 
D|-------------------------------------| 
A|-------------------------------------| 
E|-------------------------------------| 
 
e|-19b21-19b21-19b21r19--16h19p15----16--16-------------------------| 
B|--------------------------------19--------19-16--16p14--12-14-12--| 
G|------------------------------------------------------------------| 
D|------------------------------------------------------------------| 
A|------------------------------------------------------------------| 
E|------------------------------------------------------------------| 
 
e|------------------------------------------------| 
B|-12-12-12--14-14-14--16-16-16--17-17--19-19/21--| 
G|------------------------------------------------| 
D|------------------------------------------------| 
A|------------------------------------------------| 
E|------------------------------------------------| 
 
               ~~~~~~~~~~~~~~~ 
e|-16h19--21p19---------------21///--21/23-23-23-23-21-19-21-19-19~~--| 
B|--------------------------------------------------------------------| 
G|--------------------------------------------------------------------| 
D|--------------------------------------------------------------------| 
A|--------------------------------------------------------------------| 
E|--------------------------------------------------------------------| 
 
PRECORUS: 
"So qué será 
 Let's go sailing on 
 There's a wise man 
 In every fool". 
e|----------------------------------------16-14----------------------------| 
B|--------------14-16-16--14-16-16--14-16-------16-14-12----12-12--9-------| 
G|-------------------------------------------------------13----------11-8--| 
D|-------------------------------------------------------------------------| 
A|-------------------------------------------------------------------------| 
E|-------------------------------------------------------------------------| 
 
 
CHORUS: 
  
  "I say come back,  come in from the cold, 
e|-11h14-----------|-----------------------| 
B|--------12h14----|--7/9--7---------------| 
G|-----------------|----------6h8---6------| 
D|-----------------|--------------------9--| 
A|-----------------|-----------------------| 
E|-----------------|-----------------------| 
 
  Into the warm". 
e|------------------------------------------------------| 
B|--------------12-12--12-12-12--12-12--9---------------| 
G|--------------11-11--11-11-11--11-11-----11---8-------| 
D|------------------------------------------------9-9\--| 
A|------------------------------------------------------| 
E|------------------------------------------------------| 
 
"I feel like fire, 
e|-11h14-----------| 
B|--------12h14----| 
G|-----------------| 
D|-----------------| 
A|-----------------| 
E|-----------------| 
 
 Guiding you back home, 
 As darkness falls". 
e|----------------14h16-16--14h16-16--14h16-14--11\9----9------------| 
B|---------------------------------------------------12---12-9-------| 
G|-------------------------------------------------------------11-8--| 
D|-------------------------------------------------------------------| 
A|-------------------------------------------------------------------| 
E|-------------------------------------------------------------------| 
 
 "I say come home,  leave it all behind, 
e|-11h14-----------|-----------------------| 
B|--------12h14----|--7/9--7---------------| 
G|-----------------|----------6h8---6------| 
D|-----------------|--------------------9--| 
A|-----------------|-----------------------| 
E|-----------------|-----------------------| 
 
  And settle down".     ~~~~~~~~~~~~~~~ 
e|-----------------21p19---------------24-24-24-24--24-21-19-16-14--| 
B|------------------------------------------------------------------| 
G|------------------------------------------------------------------| 
D|------------------------------------------------------------------| 
A|------------------------------------------------------------------| 
E|------------------------------------------------------------------| 
 
  "I feel my love, 
e|-11--14--7---9---| 
B|-----------------| 
G|-----------------| 
D|-----------------| 
A|-----------------| 
E|-----------------| 
 
             Can give me what I want,  for all time". 
e|-7-7-----7----7-7-----7h9h11-------|-7-7-----7---7-7-7-7--9------| 
B|-----9-7---9------9-7--------------|-----9-7---9------------9-9--| 
G|-----------------------------------|-----------------------------| 
D|-----------------------------------|-----------------------------| 
A|-----------------------------------|-----------------------------| 
E|-----------------------------------|-----------------------------| 
 
e|-7-7-----7----7--7--9h11p9-----| 
B|-----9-7---9---------------12--| 
G|-------------------------------| 
D|-------------------------------| 
A|-------------------------------| 
E|-------------------------------| 
 
  "For all time, 
e|----------------|-----------------------| 
B|----------------|--7/9-7----------------| 
G|-8h11-----------|----------6h8---6------| 
D|-------9h11-----|--------------------9--| 
A|----------------|-----------------------| 
E|----------------|-----------------------| 
 
   I feel like fire".  
 
 
_______________________________________________________ 
Contribuição: Victor([email protected]) 

	  

Search Paypal
auto scroll beats size up size down change color hide chords drawings
tab show chords e-chords YouTube Clip e-chords hide all tabs e-chords go to top tab