Santana

home > Santana

Europe Tab

Santana

Difficulty: ExpertExpert

by BenitoF

tuner correct add songbook print version text version save to e-mail
chordsukulelecavacokeyboardtabbassdrumsharmonicsflute Guitar Pro
chords

Europe

  		Tabbed by: Lucien Farzan  
Tuning: EADG 


Intro 
G---------------------------------------------------------------------------| 
D---------------------------------------------------------------------------| 
A--------------------6--6-6------------------------------3------3-----------| 
E--6--6-6---6--6-6------------4--4-4---3--3-3---3--3-3-------3-------------| 

G---------------------------------------------------------------------------| 
D---------------------------------------------------------------------------| 
A--------------------6--6-6------------------------------3--3-3-3-----------| 
E--6--6-6---6--6-6------------4--4-4---3--3-3---3--3-3----------------------| 

Chorus 
G-----------10-8------------------8-7-5-----------------2-3-4---5-----------| 
D--5---5-3-------10----8----------------8-6-----------5-------5---5---------| 
A----3--------------10---8---8-6------------6---6---5---------------3--3-3--| 
E--------------------------6------------------4---3-------------------------| 

Verse 
G---------------------------------------------------------------------------| 
D------------8----------------------------------5---------------------------| 
A----------8----------6-----------------------5----------3--3-3----3--------| 
E--6--6-6------6-6--6----6---4--4-4---3--3-3-------3-3-----------3----------| 

G---------------------------------------------------------------------------| 
D---------------------------------------------------------------------------| 
A---------------------6--6-6-----------------------------------3--3-3----3--| 
E--6--6-6---66--6-6----------6---4--4-4---3--3-3---33--3-3---3---------3----| 

Chorus 
G---------------------------------8-7-5-----------------2-3-4---5-----------| 
D--5---5-3-------10----8----------------8-6-----------5-------5---5---------| 
A----3--------------10---8---8-6------------6---6---5---------------3-3-3--| 
E--------------------------6------------------4---3-------------------------| 

Solo Part 1 (3x)				    (1x) 
G-------55---------------1010--------|------55---------------10-------------| 
D----55----55-------1010------1010---|---55----55-------1010----------------| 
A--3----------3---8----------------8-|-3----------3---8---------------------| 
E------------------------------------|---------------------------5-66-77-88-| 

Solo Part 2 (1x) 
G----------------------------------10--------------| 
D----------------------10-----1010-----------------| 
A-------------------10------8----------------------| 
E--6-88-8888---6-88--------------------5-66-77-88--| 

(2x) 
G---------------------------------1010-------------| 
D----------------------------1010------1010--------| 
A--------------------------8---------------8------| 
E--6-88-8888---6-88-8888---------------------------| 

(1x) 
G---------------------------------10---------------| 
D----------------------------1010------------------| 
A--------------------------8-----------------------| 
E--6-88-8888---6-88-8888--------------5-66-77-88---| 
(1x) 
G---------------------------------1010-------------| 
D----------------------------1010------1010--------| 
A--------------------------8---------------8------| 
E--6-88-8888---6-88-8888---------------------------| 

(2x) 
G----------------------------------10--------------| 
D-----------------------------1010-----------------| 
A---------------------------8----------------------| 
E--6-88-8888---6-88-8888---------------5-66-77-88--| 

Outro 
G--------------------------------------------------| 
D--------------------------------------------------| 
A--------------------------------------------------| 
E--6-88-8888---6-88-8888---3-66-6666---3-66--3-66--| 



For corrections and suggestions mail me at: [email protected]
	  

Full key step upFull key step up
Half key step upHalf key step up
Half key step downHalf key step down
Full key step downFull key step down
Search Paypal
auto scroll beats size up size down change color hide chords drawings
tab show chords e-chords YouTube Clip e-chords hide all tabs e-chords go to top tab