Santana

home > Santana

Audoma Tab

Santana

Difficulty: AdvancedAdvanced

by josecbx

tuner correct add songbook print version text version save to e-mail
chordsukulelecavacokeyboardtabbassdrumsharmonicsflute Guitar Pro
chords

Audoma

  		Intro 
 
E|------------------------------| 
B|------------------------------| 
G|-----------5--5--7------------| 
D|-5--5-7-8-5--8----8-5-5--2/5-5| 
A|------------------------------| 
E|------------------------------| 
 
E|-------------------------------------| 
B|-----------------------6-8p-8p--11-8~| 
G|------------7p-7p-5p--7--------------|  
D|-5--5-7-8-5--------------------------|  
A|-------------------------------------|  
E|-------------------------------------| 
 
E|--------10--|-10-8-6-5-8-6-5-6--5-6-8-| 
B|-8-10-11--8~|-------------------------| 
G|------------|-------------------------|  
D|------------|-------------------------| 
A|------------|-------------------------| 
E|------------|-------------------------| 
 
E|-10--15------------------15-------15-18-17---------| 
B|-------17--18-17-15-13-15---17--15--------18-17-17-| 
G|---------------------------------------------------| 
D|---------------------------------------------------| 
A|---------------------------------------------------| 
E|---------------------------------------------------| 
 
E|----------------------------------------| 
B|-18-17-15-13--15-15-17-17-18-18-19p-19p-| 
G|----------------------------------------| 
D|----------------------------------------| 
A|----------------------------------------| 
E|----------------------------------------| 
 
 
Estribillo 1:08 
 
E|--------------| 
B|--6-8-6-------| 
G|-7-7---7-5----| 
D|----------8-5-| 
A|--------------| 
E|--------------| 
Comments to the next mail: 
[email protected] 

	  

Search Paypal
auto scroll beats size up size down change color hide chords drawings
tab show chords e-chords YouTube Clip e-chords hide all tabs e-chords go to top tab