Sandwich

Pera Pera

Sandwich

tabs nolevel nolevel

by  CARLLUZ

save to print version add songbook text version e-mail correct tuner
chordsukulelecavacokeyboardtabbassdrumsharmonicaflute Guitar Pro
close

there isn't a video lesson for this song

chords

Pera Pera

	  		
Intro 

(Guitar 1) 
e|-----------------------------------                   e|------------------| 
B|-----------------------------------                   B|------------------| 
G|-----------------------------------                   G|------------------| 
D|--22222222--77777777--666666--44---  Repeat 4 times   D|--2---------------| 
A|--22222222--77777777--666666--44---  Then end it with A|--2---------------| 
E|--00000000--55555555--444444--22---                   E|--0---------------| 

(Guitar 2) 
e|-x-7-x-77--7-7-7-7-7--7-77----7-77--7-7-7-x-77--7-77--| 
B|-x-9-x-99--9-9-9-9-9--9-99----9-99--9-9-9-x-99--9-99--| 
G|-x-9-x-99--8-8-8-8-8--9-99----9-99--8-8-8-x-88--9-99--| 
D|-x-9-x-99--9-9-9-9-9--9-99----9-99--9-9-9-x-99--9-99--| 
A|-x-7-x-77--7-7-7-7-7--7-77----7-77--7-7-7-x-77--7-77--| 
E|------------------------------------------------------| 

e|--7-77--7-7-7-x-77--7-7----7-77--7-7-7-x-77--7-77-----| 
B|--9-99--9-9-9-x-99--9-9----9-99--9-9-9-x-99--9-99-----| 
G|--9-99--8-8-8-x-88--9-9----9-99--8-8-8-x-88--9-99-----| 
D|--9-99--9-9-9-x-99--9-9----9-99--9-9-9-x-99--9-99-----| 
A|--7-77--7-7-7-x-77--7-7----7-77--7-7-7-x-77--7-77-----| 
E|------------------------------------------------------| 



Verse 

(Guitar 1)(Palm Mute) 
e|--------------------------------------------------------------------------| 
B|--------------------------------------------------------------------------| 
G|--------------------------------------------------------------------------| 
D|--------------------------------------------------------------------------| 
A|--7-7-7-7-4-4-4-4-----------------7-7-7-7-4-4-4-4---------6-6-6-6---------|   4 times 
E|------------------4-4-4-4-5-5-5-5-----------------4-4-4-4-----------------| 

(Guitar 2) "Sa Dasma La Vista at Tagaytay" 
e|----0---0---0---0---0---0---0---0----| 
B|--5---5---4---4---2---2---0---0------| 
G|-------------------------------------| 
D|-------------------------------------| 
A|-------------------------------------| 
E|-------------------------------------| 


Chorus 

(Guitar 1) 
e|---------------------------------------------------------------------------------------| 
B|---------------------------------------------------------------------------------------| 
G|--66666666--99999999----------------------66666666--99999999--11111111111111111111-----| 
D|--66666666--99999999--44444444--77777777--66666666--99999999--11111111111111111111-----| 
A|--44444444--77777777--44444444--77777777--44444444--77777777--9 9 9 9 9 9 9 9 9 9------| 
E|----------------------22222222--55555555-----------------------------------------------| 

(Guitar 2) 
e|----4--4----------------------------------------| 
B|------7---5-4-----------------------------------| 
G|--6-----------6-4-------------------------------| 
D|--6---------------6-4-2/4-4------------6-x-6-6--| 
A|--4-----------------------4---------------------| 
E|--------------------------2------4-5-5----------| 

e|----4--4----------------------------------------| 
B|------7---5-4-----------------------------------| 
G|--6-----------6-4-------------------------------| 
D|--6---------------6-4-2/4-4------------6--------| 
A|--4-----------------------4------------7--------| 
E|--------------------------2------2-4-5----------| 


(Guitar 1) 
e|-----------------------------------                   e|------------------| 
B|-----------------------------------                   B|------------------| 
G|-----------------------------------                   G|------------------| 
D|--22222222--77777777--666666--44---  Repeat 2 times   D|--2---------------| 
A|--22222222--77777777--666666--44---  Then end it with A|--2---------------| 
E|--00000000--55555555--444444--22---                   E|--0---------------| 

(Guitar 2) 
e|--7-77--7-7-x-7-77--7-77----| 
B|--9-99--9-9-x-9-99--9-99----| 
G|--9-99--8-8-x-8-88--9-99----| 
D|--9-99--9-9-x-9-99--9-99----| Repeat 2 times 
A|--7-77--7-7-x-7-77--7-77----| 
E|----------------------------| 



Verse 

(Guitar 1)(Palm Mute) 
e|--------------------------------------------------------------------------| 
B|--------------------------------------------------------------------------| 
G|--------------------------------------------------------------------------| 
D|--------------------------------------------------------------------------| 
A|--7-7-7-7-4-4-4-4-----------------7-7-7-7-4-4-4-4---------6-6-6-6---------|   4 times 
E|------------------4-4-4-4-5-5-5-5-----------------4-4-4-4-----------------| 

(Guitar 2) "Bibili ako ng mga mamahaling alahas" 
e|----0---0---0---0---0---0---0---0-| 
B|--5---5---4---4---2---2---0---0---| 
G|----------------------------------| 
D|----------------------------------| 
A|----------------------------------| 
E|----------------------------------| 

e|---0---0---0---0---0---0---0---0---0---0---0---0---0---0---0---0--| 
B|-5---5---4---4---7---7---9---9---5---5---4---4---7---7---9---9----| 
G|------------------------------------------------------------------| 
D|------------------------------------------------------------------| 
A|------------------------------------------------------------------| 
E|------------------------------------------------------------------| 




Chorus 

(Guitar 1) 
e|---------------------------------------------------------------------------------------| 
B|---------------------------------------------------------------------------------------| 
G|--66666666--99999999----------------------66666666--99999999--11111111111111111111-----| 
D|--66666666--99999999--44444444--77777777--66666666--99999999--11111111111111111111-----| 
A|--44444444--77777777--44444444--77777777--44444444--77777777--9 9 9 9 9 9 9 9 9 9------| 
E|----------------------22222222--55555555-----------------------------------------------| 

(Guitar 2) 
e|----4--4----------------------------------------| 
B|------7---5-4-----------------------------------| 
G|--6-----------6-4-------------------------------| 
D|--6---------------6-4-2/4-4------------6-x-6-6--| 
A|--4-----------------------4---------------------| 
E|--------------------------2------4-5-5----------| 

e|----4--4----------------------------------------| 
B|------7---5-4-----------------------------------| 
G|--6-----------6-4-------------------------------| 
D|--6---------------6-4-2/4-4------------6--------| 
A|--4-----------------------4------------7--------| 
E|--------------------------2------2-4-5----------| 




"Gusto ko sumikat...." 

(Guitar 1) 
e|-------------------------------------------| 
B|-------------------------------------------| 
G|--66666666----------------------9999-------| 
D|--66666666--99999999--77777777--9999-------| 
A|--44444444--99999999--77777777--7777-------| 
E|------------77777777--55555555-------------| 

e|--------------------------------------------------------| 
B|--------------------------------------------------------| 
G|--66666666----------------------------------------------| 
D|--66666666--99999999--7777777777777777--9999999999999---| 
A|--44444444--99999999--7777777777777777--9999999999999---| 
E|------------77777777--5555555555555555--7777777777777---| 

(Guitar 2) 
e|----------4---------4---------4---------4---------4--------------| 
B|----4-5-7-------4-5-----4-5-7-------4-5-----4-5-7-------4--------| 
G|--6----------46-------6----------46-------6----------46----------| 
D|-----------------------------------------------------------------| 
A|-----------------------------------------------------------------| 
E|-----------------------------------------------------------------| 

e|------4---------4---------4---------4---------4---------4--------4---------4---------4---------4| 
B|--4-5-------4-5-----4-5-7-------4-5-----4-5-7-------4-5-----4-5-7------4-5-----4-5-7-------4-5--| 
G|6--------46-------6----------46-------6----------46-------6---------46-------6----------46------| 
D|------------------------------------------------------------------------------------------------| 
A|------------------------------------------------------------------------------------------------| 
E|------------------------------------------------------------------------------------------------| 


At the end of drum solo 

(Guitar 1) 
e|-----------------------------| 
B|-----------------------------| 
G|-----------------------------| 
D|--4--------7777777777777777--| 
A|--4--------7777777777777777--| 
E|--2--------5555555555555555--| 

(Guitar 2) 
e|------------------------| 
B|-----9----9----9----9---| 
G|--12---12---12---12-----| Repeat 3 times 
D|------------------------| 
A|------------------------| 
E|------------------------| 


Last Chorus 

(Guitar 1) 
e|------------------------------------------| 
B|------------------------------------------| 
G|--66666666--99999999----------------------| 
D|--66666666--99999999--44444444--77777777--|      Repeat 3 times 
A|--44444444--77777777--44444444--77777777--| 
E|----------------------22222222--55555555--| 

e|-----------------------------------------------| 
B|-----------------------------------------------| 
G|--66666666--99999999--11111111111111111111-----| 
D|--66666666--99999999--11111111111111111111-----| 
A|--44444444--77777777--9 9 9 9 9 9 9 9 9 9------| 
E|-----------------------------------------------| 


(Guitar 2) 
e|----4--4----------------------------------------| 
B|------7---5-4-----------------------------------| 
G|--6-----------6-4-------------------------------| 
D|--6---------------6-4-2/4-4------------6-x-6-6--|    Repeat 3 times 
A|--4-----------------------4---------------------| 
E|--------------------------2------4-5-5----------| 

e|----4--4-------------------------------0--------| 
B|------7---5-4--------------------------0--------| 
G|--6-----------6-4-------------------------------| 
D|--6---------------6-4-2/4-4------------6--------| 
A|--4-----------------------4------------7--------| 
E|--------------------------2------2-4-5----------| 
 
		  

See also:

tabs King Charles - Lady Percy (intro) tabs Daughter - No Care tabs The Drills - You're Not Happy Till I'm Not Happy tabs Keaton Henson - Lying To You tabs Keaton Henson - Charon Tab tabs Imaginary Friend - Wherever You Go
e-chords

Other versions:

tabs Sandwich - Pera Pera
auto scroll beats size up size down change color hide chords drawings
tab show chords e-chords YouTube Clip e-chords hide all tabs e-chords go to top tab

share with facebook