Saliva

home > Saliva

All Around The World Tab

Saliva

Difficulty: nolevelnolevel

by edsooliveira

tuner correct add songbook print version text version save to e-mail
chordsukulelecavacokeyboardtabbassdrumsharmonicsflute Guitar Pro
chords

All Around The World

  		
Tuning:Drop C# ( Db Ab Db Gb Bb Eb) 
Intro:All notes palm muted 

**Request Tabs in my Youtube account:Jali343 

eb|--------------------------------------------------| 
Bb|--6-----6-----6--8--6-----------------------------| 
Gb|----777--777----7-7--7----------------------------| 
Db|--------------------------------------------------| 
Ab|--------------------------------------------------| 
Db|--------------------------------------------------| 

Intro(Continued): 

eb|--------------------------------------------------| 
Bb|--------------------------------------------------| 
Gb|--------------------------------------------------| 
Db|--0-3-0-3-5-6---6-5-0-3-5-3-----------------------| 
Ab|--0-3-0-3-5-6---6-5-0-3-5-3-----------------------| 
Db|--0-3-0-3-5-6-x-6-5-0-3-5-3-----------------------| 

Verse: Intro(Continued) Palm-muted throughout the verse and Intro kicks in the middle of the verse 
Pre-Chorus 
eb|--------------------------------------------------| 
Bb|--------------------------------------------------| 
Gb|-3333333--2222222-3333333-5555555555--------------| 
Db|-3333333--2222222-3333333-5555555555--------------| 
Ab|-1111111-0000000-1111111-3333344444---------------| 
Db|--------------------------------------------------| 

Chorus(Mix between Intro and Pre-Chorus): 
eb|--------------------------------------------------| 
Bb|--------------------------------------------------| 
Gb|--------------------------------------------------| 
Db|-----------------------------33333333-5555555-----| 
Ab|-0-3-0-3-5-6-x-6-5-0-3-5-3---11111111-3333333-----| 
Db|-0-3-0-3-5-6-x-6-5-0-3-5-3------------------------| 

Bridge:Riff from Intro 

Solo:(Or atleast the just of it) 


eb|--------------------------------------------------| 
Bb|-10-10-----------------13p10---10------13^--------| 
Gb|-10-10----------12^-10-------13--13-12------------| 
Db|-------12-10-12-----------------------------------| 
Ab|--------------------------------------------------| 
Db|--------------------------------------------------| 
eb|--------------------------------------------------| 
Solo(Continued) 

Bb|-10------------------------13^ 13^-13^^--13?10h13p10---10^---------------| 
Gb|---13-10---------------------------------------------13^---13------------| 
Db|---------13-12-10-12-10--------------------------------------------------| 
Ab|-------------------------------------------------------------------------| 
Db|-------------------------------------------------------------------------| 

Solo(Continued) 


eb|---------------------------------10h13p10---10h13p10---10h13p10-------| 
Bb|-13-10h13p10-----------------------------13---------13---------13-----| 
Gb|-------------13-12-10h12p10-------------------------------------------| 
Db|---------------------------12-----------------------------------------| 
Ab|----------------------------------------------------------------------| 
Db|----------------------------------------------------------------------| 

Solo(Continued) 


eb|-10h13p10---10h13-13-10-13/15-13-15-1515-13 1515-13 1515 13 15^-| 
Bb|---------13-----------------------------------------------------| 
Gb|----------------------------------------------------------------| 
Db|----------------------------------------------------------------| 
Ab|----------------------------------------------------------------| 
Db|----------------------------------------------------------------| 

That is pretty much the whole song 
Guitar Notation 
H:Hammer on 
P:Pull off 
^:bending 
	  

Full key step upFull key step up
Half key step upHalf key step up
Half key step downHalf key step down
Full key step downFull key step down
Search Paypal
auto scroll beats size up size down change color hide chords drawings
tab show chords e-chords YouTube Clip e-chords hide all tabs e-chords go to top tab