Saigon Kick

Torture

Saigon Kick

tabs

by  JESSGOMES

save to print version add songbook text version e-mail correct tuner
chordsukulelecavacokeyboardtabbassdrumsharmonicaflute Guitar Pro
close

there isn't a video lesson for this song

chords

Torture

Key:  Db More
Torture Key G#G#
Torture Key AA
Torture Key A#A#
Torture Key BB(one step down)
Torture Key CC(half step down)
Torture Key DbDb(original key)
Torture Key DD(half step up)
Torture Key D#D#(one step up)
Torture Key EE
Torture Key FF
Torture Key F#F#
Torture Key GG
	  		
Tuning: half step down + Drop "D" = Db, Ab, Db, Gb, Bb, eb 




Riff 1 - Play this riff twice before second guitar comes in.   


             PM                     PM PM             PM PM   
      E   E  E  E   E  E  E   E     E  E  E  E  E  E  E  E    
eb||-----------------------------|--------------------------| 
Bb||-----------------------------|--------------------------| 
Gb||-----------------------------|--------------------------| 
Db||-----------------------------|--------------------------| 
Ab||------------3b--0--0---------|--------------------------| 
Db||--3b--0--0------------3p--0--|--0--0--0--L--0--L--0--0--| 


Then play it four more times but on the last bar play all the notes on the muted  
"Db" string as 8th notes like this: 

             PM                     PM PM PM PM PM PM PM PM   
      E   E  E  E   E  E  E   E     E  E  E  E  E  E  E  E    
eb||-----------------------------|--------------------------| 
Bb||-----------------------------|--------------------------| 
Gb||-----------------------------|--------------------------| 
Db||-----------------------------|--------------------------| 
Ab||------------3b--0--0---------|--------------------------| 
Db||--3b--0--0------------3p--0--|--0--0--0--0--0--0--0--0--| 


Verse: 

Play riff 1 eight times 




Pre Chorus: 

      C                            G             F      E 
      W               W               W               H        H              
eb||---------------|---------------|---------------|--------------------| 
Bb||---------------|---------------|---------------|--------------------| 
Gb||--5------------|--L------------|---------------|--------------------| 
Db||--5------------|--L------------|--5------------|--3--------2--------| 
Ab||--3------------|--L------------|--5------------|--3--------2--------| 
Db||---------------|---------------|--5------------|--3--------2--------| 

Then play Riff 1 twice 

------------------- 

Repeat Verse and Pre Chorus section above, then the Chorus: 



Chorus: Play three times 
            PM PM PM PM                                                   
      Q     E  E  E  E  Q       H        E  Q.       H.         Q      H       H        
eb||-------------------------|--------------------|-----------------|-----------------| 
Bb||-------------------------|--------------------|-----------------|-----------------| 
Gb||--7\---------------------|--------------------|-----------------|-----------------| 
Db||--7\----------------3----|--------------3-----|-----------------|-----------------| 
Ab||--5\----------3-----3----|--3--------0--3-----|--5----------8---|--L------10------| 
Db||--------0--0--3--0--3----|--3--------0--3-----|--5----------8---|--L------10------| 


Last time play this: 
     Q     E  E  E  E  Q       H        E  Q.       H.         Q      H       H        
eb||-------------------------|--------------------|-----------------|-----------------| 
Bb||-------------------------|--------------------|-----------------|-----------------| 
Gb||--7\---------------------|--------------------|-----------------|-----------------| 
Db||--7\----------------3----|--------------3-----|-----------------|-----------------| 
Ab||--5\----------3-----3----|--3--------0--3-----|--5----------8---|--L------10------| 
Db||--------0--0--3--0--3----|--3--------0--3-----|--5----------8---|--L------10------| 


------------------- 

Then run through the Verse, Pre Chorus, and Chorus again and then into the solo 

Rhythym under solo is Riff 1 eight times. then Pre Chorus riff once. 

Refer to explanation in the header to see why it seems that the notes are so long 

Solo:  

      W                     H.            E   E    
E||---------------------|------------------------| 
B||--17b----------------|--17------------15--17--| 
G||---------------------|------------------------| 
D||---------------------|------------------------| 
A||---------------------|------------------------| 
E||---------------------|------------------------| 


     PH                                                        
     Q       E   E   E   Q      E      H.             E   E    
-----------------------------------|-------------------------| 
--17br----15------15--15-----15--|-------------------------| 
----------------17------17b--------|--17b------------14--13--| 
-----------------------------------|-------------------------| 
-----------------------------------|-------------------------| 
-----------------------------------|-------------------------| 


                                                SH           
   E   E   H        E   E      H          E     E   E   E    
---------------------------|-------------------------------| 
---------------------------|-------------------------------| 
--14--17b--L--------L--17--|--17b--------14--13--14--13--| 
---------------------------|-------------------------------| 
---------------------------|-------------------------------| 
---------------------------|-------------------------------| 


                 PH                                                             
   E   E   E     E    E   E     E   E      E   E    E    E    E      Q     E    
---------------------------------------|--------------------------------------| 
---------------------------------------|--------------------------------------| 
--12------12--12b----------------------|--------------------------------------| 
------15-------------15---Lbr--12------|--12---Lb---Lb---Lb--12brb------------| 
-----------------------------------15--|-----------------------------------5--| 
---------------------------------------|----------------------------14\-------| 


     PM PM    PM    PM PM            PM PM          PM       
  E  E  E  E  E  E  E  E      E   E  E  E   E   E   E   E    
--------------------------|--------------------------------| 
--------------------------|--10--10--------------------10--| 
--------------------------|--10--10--------10----------10--| 
--------------------------|----------------10--------------| 
--3--------3-----3--------|--------------------11--12------| 
-----0--0-----0-----6--7--|----------0--0------------------| 


  PM PM                                                   PM       
  E  E   E   E   E   E   E   E      E   E    Q     Q      E   E    
--------------------------------|--------------------------------| 
--------10------10------10------|--10----------------------------| 
--------10------10------10------|--10------------------------10--| 
--------------------------------|------12b---L-----------12------| 
------------12------12------12--|-----------------12\-----x------| 
--0--0--------------------------|-----------------12\------------| 


     W                     H          E   Q.        
-----------------------|--------------------------| 
-----------------------|--------------------------| 
--12b------------------|---Lb--------10--10b------| 
-----------------------|--------------------------| 
-----------------------|--------------------------| 
-----------------------|--------------------------| 


                                 W                                             
   |--3--|                                                                     
   Q     E   E   E     E    E    Q        E    E     Q     E   E    E   S  S   
--------------------------------------|--------------------------------------| 
--------------------------------------|--------------------------------------| 
---------------------------10b--------|--------------------------------17-19-| 
--12----10--12--12br---Lb-------12----|--12b---Lpb---L------------/19--------| 
--------------------------------------|-------------------12\----------------| 
--------------------------------------|--------------------------------------| 


                 PM                                   
   S  E     S  S S   S  S  S   E   S  S  S  E     S   
----------------------------------------------------| 
-----20br--18------------------------------20br--18-| 
--19----------19----19-19-19------17-19-19----------| 
-----------------0-----------/19--------------------| 
----------------------------------------------------| 
----------------------------------------------------| 


   S S  S  S   S  S  S  S  E     S  S  S     Q      E   E   E   E   E   E    
-----------------------------------------|---------------------------------| 
--------------------------20br--18-------|-----------------17--18--20--17--| 
--19---19-19-----17-19-19----------17-19-|--19b----17--19------------------| 
-------------/19-------------------------|---------------------------------| 
-----------------------------------------|---------------------------------| 
-----------------------------------------|---------------------------------| 


   E   E   E   E     H            
-------------------------------|| 
--18--17-----------------------|| 
----------19--17--19b----------|| 
-------------------------------|| 
-------------------------------|| 
-------------------------------|| 


 - the solo coninues on into the first bar of the Chorus: 

D#||---------------21\----(21)\----| 
A#||-------------------------------| 
F#||--19b--------------------------| 
C#||-------------------------------| 
G#||-------------------------------| 
C#||-------------------------------| 




Duration Legend 
--------------- 
W - whole 
H - half 
Q - quarter 
E - 8th 
S - 16th 
T - 32nd 
. - note dotted 
|-n-|  - n-tuplets 


Tablature Legend 
---------------- 
L - tied note 
x - dead note 
g - grace note 
(n) - ghost note 
> - accentuded note 
NH - natural harmonic 
AH - artificial harmonic 
TH - tapped harmonic 
SH - semi harmonic 
PH - pitch harmonic 
h - hammer on 
p - pull off 
b - bend 
br - bendRelease 
pb - preBend 
pbr - preBendRelease 
brb - bendReleaseBend 
s - legato slide 
/ -  slide into from below or out of upwards 
\ -  slide into from above or out of downwards 
~ - vibrato 
W - wide vibrato 
		  

See also:

tabs Jack Johnson - Good People tabs Rage Against The Machine - Killing In The Name (ver. 2) tabs Blue Oyster Cult - Dont Fear The Reaper tabs R.E.M. - Losing my religion tabs Smashing Pumpkins - Today tabs Foo Fighters - Learn to Fly (acoustic version)
e-chords

Other versions:

tabs Gramatik - Torture tabs Saigon Kick - Torture tabs Red Hot Chili Peppers - Torture me /solo tabs Frank Zappa - Torture Never Stops tabs Wasp - Torture Never Stops tabs Slaughter - Tortured Souls
auto scroll beats size up size down change color hide chords drawings
tab show chords e-chords YouTube Clip e-chords hide all tabs e-chords go to top tab

share