Saigon Kick

New World

Saigon Kick

tabs

by  TERR_SCHMITZ

save to print version add songbook text version e-mail correct tuner
chordsukulelecavacokeyboardtabbassdrumsharmonicaflute Guitar Pro
close

there isn't a video lesson for this song

chords

New World

	  		

Guitar 



there's about 1&1/2 minutes of sitar intro before it really starts 
                       
     W                                     W                  
E||-------------------------------------|-------------------| 
B||-------------------------------------|-------------------| 
G||-------------------------------------|-------------------| 
D||-------------------------------------|-------------------| 
A||-------------------------------------|-------------------| 
E||-------------------------------------|-------------------| 


                                               PM PM PM PM      PM PM   
  W                   Q    Q    Q    E   E     E  E  E  E  Q    E  E    
-------------------|------------------------|-------------------------| 
-------------------|------------------------|-------------------------| 
-------------------|--7----7----7----7s--9--|--------------9----------| 
-------------------|--7----7----7----7s--9--|--------------9----------| 
-------------------|--5----5----5----5s--7--|--------------7----------| 
-------------------|------------------------|--0--0--0--0-------0--0--| 


  PM PM      PM PM PM PM                             PM PM PM PM      PM PM   
  E  E  Q    E  E  E  E     Q    Q    Q    E   E     E  E  E  E  Q    E  E    
-------------------------|------------------------|-------------------------| 
-------------------------|------------------------|-------------------------| 
--------9----------------|--7----7----7----7s--9--|--------------9----------| 
--------9----------------|--7----7----7----7s--9--|--------------9----------| 
--------7----------------|--5----5----5----5s--7--|--------------7----------| 
--0--0-------0--0--0--0--|------------------------|--0--0--0--0-------0--0--| 


  PM PM      PM PM PM PM                             PM PM PM PM      PM PM   
  E  E  Q    E  E  E  E     Q    Q    Q    E   E     E  E  E  E  Q    E  E    
-------------------------|------------------------|-------------------------| 
-------------------------|------------------------|-------------------------| 
--------9----------------|--7----7----7----7s--9--|--------------9----------| 
--------9----------------|--7----7----7----7s--9--|--------------9----------| 
--------7----------------|--5----5----5----5s--7--|--------------7----------| 
--0--0-------0--0--0--0--|------------------------|--0--0--0--0-------0--0--| 


  PM PM      PM PM PM PM                             PM PM PM PM      PM PM   
  E  E  Q    E  E  E  E     Q    Q    Q    E   E     E  E  E  E  Q    E  E    
-------------------------|------------------------|-------------------------| 
-------------------------|------------------------|-------------------------| 
--------9----------------|--7----7----7----7s--9--|--------------9----------| 
--------9----------------|--7----7----7----7s--9--|--------------9----------| 
--------7----------------|--5----5----5----5s--7--|--------------7----------| 
--0--0-------0--0--0--0--|------------------------|--0--0--0--0-------0--0--| 


  PM PM      PM PM PM PM                             PM PM PM PM      PM PM   
  E  E  Q    E  E  E  E     Q    Q    Q    E   E     E  E  E  E  Q    E  E    
-------------------------|------------------------|-------------------------| 
-------------------------|------------------------|-------------------------| 
--------9----------------|--7----7----7----7s--9--|--------------9----------| 
--------9----------------|--7----7----7----7s--9--|--------------9----------| 
--------7----------------|--5----5----5----5s--7--|--------------7----------| 
--0--0-------0--0--0--0--|------------------------|--0--0--0--0-------0--0--| 


  PM PM      PM PM PM PM                             PM PM PM PM      PM PM   
  E  E  Q    E  E  E  E     Q    Q    Q    E   E     E  E  E  E  Q    E  E    
-------------------------|------------------------|-------------------------| 
-------------------------|------------------------|-------------------------| 
--------9----------------|--7----7----7----7s--9--|--------------9----------| 
--------9----------------|--7----7----7----7s--9--|--------------9----------| 
--------7----------------|--5----5----5----5s--7--|--------------7----------| 
--0--0-------0--0--0--0--|------------------------|--0--0--0--0-------0--0--| 


  PM PM      PM PM PM PM                             PM PM PM PM      PM PM   
  E  E  Q    E  E  E  E     Q    Q    Q    E   E     E  E  E  E  Q    E  E    
-------------------------|------------------------|-------------------------| 
-------------------------|------------------------|-------------------------| 
--------9----------------|--7----7----7----7s--9--|--------------9----------| 
--------9----------------|--7----7----7----7s--9--|--------------9----------| 
--------7----------------|--5----5----5----5s--7--|--------------7----------| 
--0--0-------0--0--0--0--|------------------------|--0--0--0--0-------0--0--| 


  PM PM      PM PM PM PM                             PM PM PM PM      PM PM   
  E  E  Q    E  E  E  E     Q    Q    Q    E   E     E  E  E  E  Q    E  E    
-------------------------|------------------------|-------------------------| 
-------------------------|------------------------|-------------------------| 
--------9----------------|--7----7----7----7s--9--|--------------9----------| 
--------9----------------|--7----7----7----7s--9--|--------------9----------| 
--------7----------------|--5----5----5----5s--7--|--------------7----------| 
--0--0-------0--0--0--0--|------------------------|--0--0--0--0-------0--0--| 


  PM PM      PM PM PM PM                             PM PM PM PM      PM PM   
  E  E  Q    E  E  E  E     Q    Q    Q    E   E     E  E  E  E  Q    E  E    
-------------------------|------------------------|-------------------------| 
-------------------------|------------------------|-------------------------| 
--------9----------------|--7----7----7----7s--9--|--------------9----------| 
--------9----------------|--7----7----7----7s--9--|--------------9----------| 
--------7----------------|--5----5----5----5s--7--|--------------7----------| 
--0--0-------0--0--0--0--|------------------------|--0--0--0--0-------0--0--| 


  PM PM      PM PM PM PM                                                      
  E  E  Q    E  E  E  E     Q    Q    Q    E   E     E  E  E  E  Q    E  E    
-------------------------|------------------------|-------------------------| 
-------------------------|------------------------|-------------------------| 
--------9----------------|--7----7----7----7s--9--|--------------9----------| 
--------9----------------|--7----7----7----7s--9--|--------------9----------| 
--------7----------------|--5----5----5----5s--7--|--------------7----------| 
--0--0-------0--0--0--0--|------------------------|--0--0--0--0-------0--0--| 


                                                     PM PM PM PM      PM PM   
  E  E  Q    E  E  E  E     Q    Q    Q    E   E     E  E  E  E  Q    E  E    
-------------------------|------------------------|-------------------------| 
-------------------------|------------------------|-------------------------| 
--------9----------------|--7----7----7----7s--9--|--------------9----------| 
--------9----------------|--7----7----7----7s--9--|--------------9----------| 
--------7----------------|--5----5----5----5s--7--|--------------7----------| 
--0--0-------0--0--0--0--|------------------------|--0--0--0--0-------0--0--| 


  PM PM      PM PM PM PM                             PM PM PM PM      PM PM   
  E  E  Q    E  E  E  E     Q    Q    Q    E   E     E  E  E  E  Q    E  E    
-------------------------|------------------------|-------------------------| 
-------------------------|------------------------|-------------------------| 
--------9----------------|--7----7----7----7s--9--|--------------9----------| 
--------9----------------|--7----7----7----7s--9--|--------------9----------| 
--------7----------------|--5----5----5----5s--7--|--------------7----------| 
--0--0-------0--0--0--0--|------------------------|--0--0--0--0-------0--0--| 


  PM PM      PM PM PM PM                                      PM      PM      
  E  E  Q    E  E  E  E      H          Q     Q       E  Q    E  Q    E  E    
-------------------------|-------------------------|------------------------| 
-------------------------|-------------------------|------------------------| 
--------9----------------|-------------------------|------------------------| 
--------9----------------|-------------------------|------------------------| 
--------7----------------|---7\---------------2----|--L--3-------4-------3--| 
--0--0-------0--0--0--0--|--12\--------12\----0----|--L--1----0--2----0--1--| 


     PM      PM      PM                                   PM      PM      
  E  E  Q    E  Q    E     Q    Q    Q    Q       E  Q    E  Q    E  E    
------------------------|----------------------|------------------------| 
------------------------|----------------------|------------------------| 
------------------------|----------------------|------------------------| 
------------------------|--3----3----3---------|------------------------| 
--L-----2-------3-------|--1----1----1----2----|--L--3-------4-------3--| 
--L--0--0----0--1----0--|-----------------0----|--L--1----0--2----0--1--| 


     PM        PM        PM                                   PM      PM      
  E  E  E   E  E  E   E  E     Q    Q    Q    Q       E  Q    E  Q    E  E    
----------------------------|----------------------|------------------------| 
----------------------------|----------------------|------------------------| 
----------------------------|----------------------|------------------------| 
--------5s--4---------------|--7----7----7---------|------------------------| 
--L-----3s--2-----4s--5-----|--5----5----5----2----|--L--3-------4-------3--| 
--L--0---------0--2s--3--0--|-----------------0----|--L--1----0--2----0--1--| 


     PM      PM      PM                                   PM      PM      
  E  E  Q    E  Q    E     Q    Q    Q    Q       E  Q    E  Q    E  E    
------------------------|----------------------|------------------------| 
------------------------|----------------------|------------------------| 
------------------------|----------------------|------------------------| 
------------------------|--3----3----3---------|------------------------| 
--L-----2-------3-------|--1----1----1----2----|--L--3-------4-------3--| 
--L--0--0----0--1----0--|-----------------0----|--L--1----0--2----0--1--| 


     PM        PM        PM                                                      
  E  E  E   E  E  E   E  E     Q    Q    Q    E   E     E  E  E  E  Q    E  E    
----------------------------|------------------------|-------------------------| 
----------------------------|------------------------|-------------------------| 
----------------------------|--7----7----7----7s--9--|--------------9----------| 
--------5s--4---------------|--7----7----7----7s--9--|--------------9----------| 
--L-----3s--2-----4s--5-----|--5----5----5----5s--7--|--------------7----------| 
--L--0---------0--2s--3--0--|------------------------|--0--0--0--0-------0--0--| 


  E  E  Q    E  E  E  E     Q    Q    Q    E   E     E  E  E  E  Q    E  E    
-------------------------|------------------------|-------------------------| 
-------------------------|------------------------|-------------------------| 
--------9----------------|--7----7----7----7s--9--|--------------9----------| 
--------9----------------|--7----7----7----7s--9--|--------------9----------| 
--------7----------------|--5----5----5----5s--7--|--------------7----------| 
--0--0-------0--0--0--0--|------------------------|--0--0--0--0-------0--0--| 


  E  E  Q    E  E  E  E     Q    Q    Q    E   E     E  E  E  E  Q    E  E    
-------------------------|------------------------|-------------------------| 
-------------------------|------------------------|-------------------------| 
--------9----------------|--7----7----7----7s--9--|--------------9----------| 
--------9----------------|--7----7----7----7s--9--|--------------9----------| 
--------7----------------|--5----5----5----5s--7--|--------------7----------| 
--0--0-------0--0--0--0--|------------------------|--0--0--0--0-------0--0--| 


  E  E  Q    E  E  E  E     Q    Q    Q    E   E     E  E  E  E  Q    E  E    
-------------------------|------------------------|-------------------------| 
-------------------------|------------------------|-------------------------| 
--------9----------------|--7----7----7----7s--9--|--------------9----------| 
--------9----------------|--7----7----7----7s--9--|--------------9----------| 
--------7----------------|--5----5----5----5s--7--|--------------7----------| 
--0--0-------0--0--0--0--|------------------------|--0--0--0--0-------0--0--| 


  E  E  Q    E  E  E  E     Q    Q    Q    E   E     E  E  E  E  Q    E  E    
-------------------------|------------------------|-------------------------| 
-------------------------|------------------------|-------------------------| 
--------9----------------|--7----7----7----7s--9--|--------------9----------| 
--------9----------------|--7----7----7----7s--9--|--------------9----------| 
--------7----------------|--5----5----5----5s--7--|--------------7----------| 
--0--0-------0--0--0--0--|------------------------|--0--0--0--0-------0--0--| 


  E  E  Q    E  E  E  E     Q    Q    Q    E   E     E  E  E  E  Q    E  E    
-------------------------|------------------------|-------------------------| 
-------------------------|------------------------|-------------------------| 
--------9----------------|--7----7----7----7s--9--|--------------9----------| 
--------9----------------|--7----7----7----7s--9--|--------------9----------| 
--------7----------------|--5----5----5----5s--7--|--------------7----------| 
--0--0-------0--0--0--0--|------------------------|--0--0--0--0-------0--0--| 


  E  E  Q    E  E  E  E     Q    Q    Q    E   E     E  E  E  E  Q    E  E    
-------------------------|------------------------|-------------------------| 
-------------------------|------------------------|-------------------------| 
--------9----------------|--7----7----7----7s--9--|--------------9----------| 
--------9----------------|--7----7----7----7s--9--|--------------9----------| 
--------7----------------|--5----5----5----5s--7--|--------------7----------| 
--0--0-------0--0--0--0--|------------------------|--0--0--0--0-------0--0--| 


  E  E  Q    E  E  E  E     Q    Q    Q    E   E     E  E  E  E  Q    E  E    
-------------------------|------------------------|-------------------------| 
-------------------------|------------------------|-------------------------| 
--------9----------------|--7----7----7----7s--9--|--------------9----------| 
--------9----------------|--7----7----7----7s--9--|--------------9----------| 
--------7----------------|--5----5----5----5s--7--|--------------7----------| 
--0--0-------0--0--0--0--|------------------------|--0--0--0--0-------0--0--| 


  E  E  Q    E  E  E  E     Q    Q    Q    E   E     E  E  E  E  Q    E  E    
-------------------------|------------------------|-------------------------| 
-------------------------|------------------------|-------------------------| 
--------9----------------|--7----7----7----7s--9--|--------------9----------| 
--------9----------------|--7----7----7----7s--9--|--------------9----------| 
--------7----------------|--5----5----5----5s--7--|--------------7----------| 
--0--0-------0--0--0--0--|------------------------|--0--0--0--0-------0--0--| 


  E  E  Q    E  E  E  E     Q    Q    Q    E   E     E  E  E  E  Q    E  E    
-------------------------|------------------------|-------------------------| 
-------------------------|------------------------|-------------------------| 
--------9----------------|--7----7----7----7s--9--|--------------9----------| 
--------9----------------|--7----7----7----7s--9--|--------------9----------| 
--------7----------------|--5----5----5----5s--7--|--------------7----------| 
--0--0-------0--0--0--0--|------------------------|--0--0--0--0-------0--0--| 


                                                              PM      PM      
  E  E  Q    E  E  E  E      H          Q     Q       E  Q    E  Q    E  E    
-------------------------|-------------------------|------------------------| 
-------------------------|-------------------------|------------------------| 
--------9----------------|-------------------------|------------------------| 
--------9----------------|-------------------------|------------------------| 
--------7----------------|---7\---------------2----|--L--3-------4-------3--| 
--0--0-------0--0--0--0--|--12\--------12\----0----|--L--1----0--2----0--1--| 


     PM      PM      PM                                   PM      PM      
  E  E  Q    E  Q    E     Q    Q    Q    Q       E  Q    E  Q    E  E    
------------------------|----------------------|------------------------| 
------------------------|----------------------|------------------------| 
------------------------|----------------------|------------------------| 
------------------------|--3----3----3---------|------------------------| 
--L-----2-------3-------|--1----1----1----2----|--L--3-------4-------3--| 
--L--0--0----0--1----0--|-----------------0----|--L--1----0--2----0--1--| 


     PM        PM        PM                                   PM      PM      
  E  E  E   E  E  E   E  E     Q    Q    Q    Q       E  Q    E  Q    E  E    
----------------------------|----------------------|------------------------| 
----------------------------|----------------------|------------------------| 
----------------------------|--2----2----2---------|------------------------| 
--------5s--4---------------|--0----0----0---------|------------------------| 
--L-----3s--2-----4s--5-----|-----------------2----|--L--3-------4-------3--| 
--L--0---------0--2s--3--0--|-----------------0----|--L--1----0--2----0--1--| 


     PM      PM      PM                                   PM      PM      
  E  E  Q    E  Q    E     Q    Q    Q    Q       E  Q    E  Q    E  E    
------------------------|----------------------|------------------------| 
------------------------|----------------------|------------------------| 
------------------------|----------------------|------------------------| 
------------------------|--3----3----3---------|------------------------| 
--L-----2-------3-------|--1----1----1----2----|--L--3-------4-------3--| 
--L--0--0----0--1----0--|-----------------0----|--L--1----0--2----0--1--| 


     PM        PM        PM                                              
  E  E  E   E  E  E   E  E     Q    Q    Q    Q       W                  
----------------------------|----------------------|-------------------| 
----------------------------|----------------------|-------------------| 
----------------------------|--7----7----7----9----|--L----------------| 
--------5s--4---------------|--7----7----7----9----|--L----------------| 
--L-----3s--2-----4s--5-----|--5----5----5----7----|--L----------------| 
--L--0---------0--2s--3--0--|-----------------0----|--L----------------| 


  W                   H        Q    Q       W                  
-------------------|---------------------|-------------------| 
-------------------|---------------------|-------------------| 
-------------------|-----------9----8----|--L----------------| 
-------------------|-----------9----8----|--L----------------| 
--L----------------|-----------7----6----|--L----------------| 
--L----------------|--L------------------|-------------------| 


  W                   Q    Q    Q    Q       W                  
-------------------|----------------------|-------------------| 
-------------------|----------------------|-------------------| 
-------------------|-----------------9----|--L----------------| 
--L----------------|--L----8---------9----|--L----------------| 
--L----------------|--L----6----7----7----|--L----------------| 
-------------------|------------0----7----|--L----------------| 


  W                   H        Q    Q       W                  
-------------------|---------------------|-------------------| 
-------------------|---------------------|-------------------| 
--L----------------|--L--------9---------|-------------------| 
--L----------------|--L--------9----8----|--L----------------| 
--L----------------|--L--------7----8----|--L----------------| 
--L----------------|--L-------------6----|--L----------------| 


  W                   H        Q    Q       W                  
-------------------|---------------------|-------------------| 
-------------------|---------------------|-------------------| 
-------------------|----------------9----|--L----------------| 
--L----------------|--L--------L----9----|--L----------------| 
--L----------------|--L--------L----7----|--L----------------| 
--L----------------|--L--------L---------|--L----------------| 


  W                   H        Q    Q       W                  
-------------------|---------------------|-------------------| 
-------------------|---------------------|-------------------| 
-------------------|-----------9----8----|--L----------------| 
-------------------|-----------9----8----|--L----------------| 
--L----------------|-----------7----6----|--L----------------| 
--L----------------|--L------------------|-------------------| 


  W                   Q    Q    Q    Q       W                  
-------------------|----------------------|-------------------| 
-------------------|----------------------|-------------------| 
-------------------|-----------------9----|--L----------------| 
--L----------------|--L----8---------9----|--L----------------| 
--L----------------|--L----6----7----7----|--L----------------| 
-------------------|------------0----7----|--L----------------| 


  W                   H        Q    Q       W                  
-------------------|---------------------|-------------------| 
-------------------|---------------------|-------------------| 
--L----------------|--L--------9---------|-------------------| 
--L----------------|--L--------9----8----|--L----------------| 
--L----------------|--L--------7----8----|--L----------------| 
--L----------------|--L-------------6----|--L----------------| 


                          PM      PM                       PM    PM PM   
  Q.     E  E  E  Q       E  Q    E  H           Q    Q    E  E  E  E    
-----------------------|----------------------|------------------------| 
-----------------------|----------------------|------------------------| 
-----------------------|----------------------|------------------------| 
--L------8--8--8-------|-----3-------4--------|--5------------3--------| 
--L------8--8--8-------|-----1-------2--------|--3------------1--------| 
--L------6--6--6--0----|--0-------0-----------|-------0----0-----0--0--| 


                         PM      PM                                  
  Q    Q    Q    Q       E  Q    E  H           Q    H        Q      
----------------------|----------------------|---------------------| 
----------------------|----------------------|---------------------| 
----------------------|----------------------|---------------------| 
--4----5----4---------|-----3-------4--------|--5----7-------------| 
--2----3----2---------|-----1-------2--------|--3----5--------5----| 
-----------------0----|--0-------0-----------|----------------3----| 


                        PM    PM PM                       PM    PM PM   
  H        Q    Q       E  E  E  E  H           Q    Q    E  E  E  E    
---------------------|-----------------------|------------------------| 
---------------------|-----------------------|------------------------| 
---------------------|-----------------------|------------------------| 
--5------------------|-----3--------4--------|--5------------3--------| 
--3--------3----2----|-----1--------2--------|--3------------1--------| 
-----------1----0----|--0-----0--0-----------|-------0----0-----0--0--| 


                         PM    PM PM                                  
  Q    Q    Q    Q       E  E  E  E  H           Q    H        Q      
----------------------|-----------------------|---------------------| 
----------------------|-----------------------|---------------------| 
----------------------|-----------------------|---------------------| 
--4----5----4---------|-----3--------4--------|--5----7-------------| 
--2----3----2---------|-----1--------2--------|--3----5--------5----| 
-----------------0----|--0-----0--0-----------|----------------3----| 


  H        Q    E   E     E  E  E  E  Q    E  E     E  E  Q    E  E  E  E    
-----------------------|-------------------------|-------------------------| 
-----------------------|-------------------------|-------------------------| 
-----------------------|--------------9----------|--------9----------------| 
--5--------7----7s--8--|--------------9----------|--------9----------------| 
--3--------5----5s--7--|--------------7----------|--------7----------------| 
-----------------------|--0--0--0--0-------0--0--|--0--0-------0--0--0--0--| 


  Q    Q    Q    E   E     E  E  E  E  Q    E  E     E  E  Q    E  E  E  E    
------------------------|-------------------------|-------------------------| 
------------------------|-------------------------|-------------------------| 
--7----7----7----7s--9--|--------------9----------|--------9----------------| 
--7----7----7----7s--9--|--------------9----------|--------9----------------| 
--5----5----5----5s--7--|--------------7----------|--------7----------------| 
------------------------|--0--0--0--0-------0--0--|--0--0-------0--0--0--0--| 


  Q    Q    Q    E   E     E  E  E  E  Q    E  E     E  E  Q    E  E  E  E    
------------------------|-------------------------|-------------------------| 
------------------------|-------------------------|-------------------------| 
--7----7----7----7s--9--|--------------9----------|--------9----------------| 
--7----7----7----7s--9--|--------------9----------|--------9----------------| 
--5----5----5----5s--7--|--------------7----------|--------7----------------| 
------------------------|--0--0--0--0-------0--0--|--0--0-------0--0--0--0--| 


  Q    Q    Q    E   E     E  E  E  E  Q    E  E     E  E  Q    E  E  E  E    
------------------------|-------------------------|-------------------------| 
------------------------|-------------------------|-------------------------| 
--7----7----7----7s--9--|--------------9----------|--------9----------------| 
--7----7----7----7s--9--|--------------9----------|--------9----------------| 
--5----5----5----5s--7--|--------------7----------|--------7----------------| 
------------------------|--0--0--0--0-------0--0--|--0--0-------0--0--0--0--| 


  Q    Q    Q    E   E     E  E  E  E  Q    E  E     E  E  Q    E  E  E  E    
------------------------|-------------------------|-------------------------| 
------------------------|-------------------------|-------------------------| 
--7----7----7----7s--9--|--------------9----------|--------9----------------| 
--7----7----7----7s--9--|--------------9----------|--------9----------------| 
--5----5----5----5s--7--|--------------7----------|--------7----------------| 
------------------------|--0--0--0--0-------0--0--|--0--0-------0--0--0--0--| 


  Q    Q    Q    E   E     E  E  E  E  Q    E  E     E  E  Q    E  E  E  E    
------------------------|-------------------------|-------------------------| 
------------------------|-------------------------|-------------------------| 
--7----7----7----7s--9--|--------------9----------|--------9----------------| 
--7----7----7----7s--9--|--------------9----------|--------9----------------| 
--5----5----5----5s--7--|--------------7----------|--------7----------------| 
------------------------|--0--0--0--0-------0--0--|--0--0-------0--0--0--0--| 


  Q    Q    Q    E   E     E  E  E  E  Q    E  E     E  E  Q    E  E  E  E    
------------------------|-------------------------|-------------------------| 
------------------------|-------------------------|-------------------------| 
--7----7----7----7s--9--|--------------9----------|--------9----------------| 
--7----7----7----7s--9--|--------------9----------|--------9----------------| 
--5----5----5----5s--7--|--------------7----------|--------7----------------| 
------------------------|--0--0--0--0-------0--0--|--0--0-------0--0--0--0--| 


  Q    Q    Q    E   E     E  E  E  E  Q    E  E     E  E  Q    E  E  E  E    
------------------------|-------------------------|-------------------------| 
------------------------|-------------------------|-------------------------| 
--7----7----7----7s--9--|--------------9----------|--------9----------------| 
--7----7----7----7s--9--|--------------9----------|--------9----------------| 
--5----5----5----5s--7--|--------------7----------|--------7----------------| 
------------------------|--0--0--0--0-------0--0--|--0--0-------0--0--0--0--| 


  Q    Q    Q    E   E     E  E  E  E  Q    E  E     E  E  Q    E  E  E  E    
------------------------|-------------------------|-------------------------| 
------------------------|-------------------------|-------------------------| 
--7----7----7----7s--9--|--------------9----------|--------9----------------| 
--7----7----7----7s--9--|--------------9----------|--------9----------------| 
--5----5----5----5s--7--|--------------7----------|--------7----------------| 
------------------------|--0--0--0--0-------0--0--|--0--0-------0--0--0--0--| 


  Q    Q    Q    E   E     E  E  E  E  Q    E  E     E  E  Q    E  E  E  E    
------------------------|-------------------------|-------------------------| 
------------------------|-------------------------|-------------------------| 
--7----7----7----7s--9--|--------------9----------|--------9----------------| 
--7----7----7----7s--9--|--------------9----------|--------9----------------| 
--5----5----5----5s--7--|--------------7----------|--------7----------------| 
------------------------|--0--0--0--0-------0--0--|--0--0-------0--0--0--0--| 


  Q    Q    Q    E   E     E  E  E  E  Q    E  E     E  E  Q    E  E  E  E    
------------------------|-------------------------|-------------------------| 
------------------------|-------------------------|-------------------------| 
--7----7----7----7s--9--|--------------9----------|--------9----------------| 
--7----7----7----7s--9--|--------------9----------|--------9----------------| 
--5----5----5----5s--7--|--------------7----------|--------7----------------| 
------------------------|--0--0--0--0-------0--0--|--0--0-------0--0--0--0--| 


  Q    Q    Q    E   E     E  E  E  E  Q    E  E     E  E  Q    E  E  E  E    
------------------------|-------------------------|-------------------------| 
------------------------|-------------------------|-------------------------| 
--7----7----7----7s--9--|--------------9----------|--------9----------------| 
--7----7----7----7s--9--|--------------9----------|--------9----------------| 
--5----5----5----5s--7--|--------------7----------|--------7----------------| 
------------------------|--0--0--0--0-------0--0--|--0--0-------0--0--0--0--| 


                                    PM      PM          PM      PM      PM   
   H          Q     Q       E  Q    E  Q    E  E     E  E  Q    E  Q    E    
-------------------------|------------------------|------------------------| 
-------------------------|------------------------|------------------------| 
-------------------------|------------------------|------------------------| 
-------------------------|------------------------|------------------------| 
--------------------2----|--L--3-------4-------3--|--L-----2-------3-------| 
--12\--------12\----0----|--L--1----0--2----0--1--|--L--0--0----0--1----0--| 


                                 PM      PM          PM        PM        PM   
  Q    Q    Q    Q       E  Q    E  Q    E  E     E  E  E   E  E  E   E  E    
----------------------|------------------------|----------------------------| 
----------------------|------------------------|----------------------------| 
----------------------|------------------------|----------------------------| 
--3----3----3---------|------------------------|--------5s--4---------------| 
--1----1----1----2----|--L--3-------4-------3--|--L-----3s--2-----4s--5-----| 
-----------------0----|--L--1----0--2----0--1--|--L--0---------0--2s--3--0--| 


                                 PM      PM          PM      PM      PM   
  Q    Q    Q    Q       E  Q    E  Q    E  E     E  E  Q    E  Q    E    
----------------------|------------------------|------------------------| 
----------------------|------------------------|------------------------| 
----------------------|------------------------|------------------------| 
--7----7----7---------|------------------------|------------------------| 
--5----5----5----2----|--L--3-------4-------3--|--L-----2-------3-------| 
-----------------0----|--L--1----0--2----0--1--|--L--0--0----0--1----0--| 


                                 PM      PM          PM        PM        PM   
  Q    Q    Q    Q       E  Q    E  Q    E  E     E  E  E   E  E  E   E  E    
----------------------|------------------------|----------------------------| 
----------------------|------------------------|----------------------------| 
----------------------|------------------------|----------------------------| 
--3----3----3---------|------------------------|--------5s--4---------------| 
--1----1----1----2----|--L--3-------4-------3--|--L-----3s--2-----4s--5-----| 
-----------------0----|--L--1----0--2----0--1--|--L--0---------0--2s--3--0--| 


                                 PM      PM          PM      PM      PM   
  Q    Q    Q    Q       E  Q    E  Q    E  E     E  E  Q    E  Q    E    
----------------------|------------------------|------------------------| 
----------------------|------------------------|------------------------| 
--7----7----7---------|------------------------|------------------------| 
--7----7----7---------|------------------------|------------------------| 
--5----5----5----2----|--L--3-------4-------3--|--L-----2-------3-------| 
-----------------0----|--L--1----0--2----0--1--|--L--0--0----0--1----0--| 


                                 PM      PM          PM        PM        PM   
  Q    Q    Q    Q       E  Q    E  Q    E  E     E  E  E   E  E  E   E  E    
----------------------|------------------------|----------------------------| 
----------------------|------------------------|----------------------------| 
----------------------|------------------------|----------------------------| 
--3----3----3---------|------------------------|--------5s--4---------------| 
--1----1----1----2----|--L--3-------4-------3--|--L-----3s--2-----4s--5-----| 
-----------------0----|--L--1----0--2----0--1--|--L--0---------0--2s--3--0--| 


                                 PM      PM          PM      PM      PM   
  Q    Q    Q    Q       E  Q    E  Q    E  E     E  E  Q    E  Q    E    
----------------------|------------------------|------------------------| 
----------------------|------------------------|------------------------| 
----------------------|------------------------|------------------------| 
--7----7----7---------|------------------------|------------------------| 
--5----5----5----2----|--L--3-------4-------3--|--L-----2-------3-------| 
-----------------0----|--L--1----0--2----0--1--|--L--0--0----0--1----0--| 


                                 PM      PM          PM        PM        PM   
  Q    Q    Q    Q       E  Q    E  Q    E  E     E  E  E   E  E  E   E  E    
----------------------|------------------------|----------------------------| 
----------------------|------------------------|----------------------------| 
----------------------|------------------------|----------------------------| 
--3----3----3---------|------------------------|--------5s--4---------------| 
--1----1----1----2----|--L--3-------4-------3--|--L-----3s--2-----4s--5-----| 
-----------------0----|--L--1----0--2----0--1--|--L--0---------0--2s--3--0--| 


  Q    Q    Q    Q       W                   W                  
----------------------|-------------------|-------------------| 
----------------------|-------------------|-------------------| 
--7----7----7---------|-------------------|-------------------| 
--7----7----7----2----|--L----------------|--L----------------| 
--5----5----5----2----|--L----------------|--L----------------| 
-----------------0----|--L----------------|--L----------------| 


  W                   W                   W                   W                  
-------------------|-------------------|-------------------|-------------------| 
-------------------|-------------------|-------------------|-------------------| 
--8----------------|--L----------------|-------------------|-------------------| 
--8----------------|--L----------------|--9----------------|--L----------------| 
--6----------------|--L----------------|--9----------------|--L----------------| 
-------------------|-------------------|--7----------------|--L----------------| 


                               \1/                            
  W                   H        H           W                  
-------------------|--------------------|-------------------| 
-------------------|--------------------|-------------------| 
-------------------|--------------------|-------------------| 
--8----------------|--8--------L--------|-------------------| 
--8----------------|--8--------L--------|-------------------| 
--6----------------|--6--------L--------|--0----------------| 


  W                   
-------------------|| 
-------------------|| 
-------------------|| 
-------------------|| 
-------------------|| 
--L----------------|| 




Duration Legend 
--------------- 
W - whole 
H - half 
Q - quarter 
E - 8th 
S - 16th 
T - 32nd 
X - 64th 
. - note dotted 
|-n-|  - n-tuplets 


Tablature Legend 
---------------- 
L - tied note 
x - dead note 
g - grace note 
(n) - ghost note 
> - accentuded note 
NH - natural harmonic 
AH - artificial harmonic 
TH - tapped harmonic 
SH - semi harmonic 
PH - pitch harmonic 
h - hammer on 
p - pull off 
b - bend 
br - bendRelease 
pb - preBend 
pbr - preBendRelease 
brb - bendReleaseBend 
\n/ - tremolo bar dip 
\n - tremolo bar dive 
-/n - tremolo bar Release up 
/n\ - tremolo bar inverted dip 
/n - tremolo bar return 
-\n - tremolo bar Release down 
S - shift slide 
s - legato slide 
/ -  slide into from below or out of upwards 
\ -  slide into from above or out of downwards 
~ - vibrato 
W - wide vibrato 
tr - trill 
TP - tremolo picking 
T - tapping 
S - slap 
P - pop 
< - fade in 
^ - brush up 
v - brush down 
		  

See also:

tabs Jack Johnson - Good People tabs Rage Against The Machine - Killing In The Name (ver. 2) tabs Blue Oyster Cult - Dont Fear The Reaper tabs R.E.M. - Losing my religion tabs Smashing Pumpkins - Today tabs Foo Fighters - Learn to Fly (acoustic version)
e-chords

Other versions:

tabs Saigon Kick - New World tabs Megadeth - New World Order
auto scroll beats size up size down change color hide chords drawings
tab show chords e-chords YouTube Clip e-chords hide all tabs e-chords go to top tab

share