Sabaton

The Last Stand

Sabaton

tabs

by  JESSGOMES

save to print version add songbook text version e-mail correct tuner
chordsukulelecavacokeyboardtabbassdrumsharmonicaflute Guitar Pro
close

there isn't a video lesson for this song

chords

The Last Stand

	  		
Intro 
e|---------------------------------------------------------------| 
B|---------------------------------------------------------------| 
G|---------------------------------------------------------------| 
D|--5-----5-----3-----5--5--5-----5-----5-----3--5-----5-----3---| 
A|--5-----5-----3-----6--5--5-----5-----5-----3--5-----5-----3---| 
D|--5-5-5-5-5-5-5-5-5-5--5--5-5-5-5-5-5-5-5-5-5--5-5-5-5-5-5-5-5-| 

e|---------------------------------------------------------------| 
B|---------------------------------------------------------------| 
G|---------------------------------------------------------------| 
D|---5--5--5-----5-5-5--3---5-----5-----3-----5--5--5-----5------| 
A|---6--5--5-----6-5-5--3---5-----5-----3-----6--5--5-----5------| 
D|-5-5--5--5-5-5-5-5-5--3---5-5-5-5-5-5-5-5-5-5--5--5-5-5-5-5-5--| 

e|---------------------------------------------------------------| 
B|---------------------------------------------------------------| 
G|----------------------------------------3-----3-3--------------| 
D|-5-----3--5-----5-----3-----5--5--1-----3--3--3-3--------------| 
A|-5-----3--5-----5-----3-----6--5--1-----1--3--1-1--------------| 
D|-5-5-5-5--5-5-5-5-5-5-5-5-5-5--5--1--------3-------------------| 


e|---------------------------------------------------------------| 
B|---------------------------------------------------------------| 
G|--7------7---8------10---7------7----7--5-5--8--7--------------| 
D|--5--5-5-5-5-5--5-5-5--5-5--5-5-5-5--3--3-3--5--5--------------| 
A|---------------------------------------------------------------| 
D|---------------------------------------------------------------| 



Verse  
e|---------------------------------------------------------------| 
B|---------------------------------------------------------------| 
G|---------------------------------------------------------------| 
D|--5------5---5------5---5------5----8------------3---3---------| 
A|--5------5---6------8---5------5----6--(6)-(6)---1---3---------| 
D|--5--5-5-5-5-5--5-5-5-5-5--5-5-5-5-------------------3---------| 



Pre-Chorus 
e|---------------------------------------------------------------| 
B|---------------------------------------------------------------| 
G|---------------------------------------------------------------| 
D|--5-----5-----5-----5------8-----8------8------3---------------| 
A|--3-3-3-3-3-3-3-3-3-3-3-3--6-6-6-6-6-6--8------3---------------| 
D|----------------------------------------8-8-8--3-3-3-----------| 

e|---------------------------------------------------------------| 
B|---------------------------------------------------------------| 
G|---------------------------------------------------------------| 
D|--5-----5-----5-----5------8-----8------3-----3------4------4--| 
A|--3-3-3-3-3-3-3-3-3-3-3-3--6-6-6-6-6-6--3-----3------5------5--| 
D|----------------------------------------3-3-3-3-3-3--4-4-4--4--| 

e|---------------------------------------------------------------| 
B|---------------------------------------------------------------| 
G|--------------------------7------------------------------------| 
D|-------5------7------8--------8--5---7-8-7-8-7-8-7-8-----------| 
A|-------5------7------8----5---6--3---5-6-5-6-5-6-5-6-----------| 
D|--4-4--5-5-5--7-7-7--8-----------------------------------------| 



Chorus 
e|---------------------------------------------------------------| 
B|---------------------------------------------------------------| 
G|---------------------------------------------------------------| 
D|--3-----3------3------5------8-----8------3------3------5------| 
A|--1-1-1-1------3------5------6-6-6-6-6-6--1-1-1--3------5------| 
D|-----------3-3-3--5-5-5-5-5----------------------3-3-3--5-5-5--| 

e|---------------------------------------------------------------| 
B|---------------------------------------------------------------| 
G|---------------------------------------------------------------| 
D|--5------3------3------8-----8------1------3-------------------| 
A|--5------3--1-1-1-1-1--6-6-6-6-6-6--3-3-3--3-------------------| 
D|--5--3-3-3---------------------------------3-3-3---------------| 

e|---------------------------------------------------------------| 
B|---------------------------------------------------------------| 
G|---------------------------------------------------------------| 
D|--3-----3------3------5------8-----8------3------3------5------| 
A|--1-1-1-1------3------5------6-6-6-6-6-6--1-1-1--3------5------| 
D|-----------3-3-3--5-5-5-5-5----------------------3-3-3--5-5-5--| 

e|---------------------------------------------------------------| 
B|---------------------------------------------------------------| 
G|---------------------------------------------------------------| 
D|--5------3------3------8-----8-------3---3---3-3---------------| 
A|--5------3--1-1-1-1-1--6-6-6-6-6-6---1---3---1-1---------------| 
D|--5--3-3-3-------------------------------3---------------------| 



2nd verse - there is only slight variation in the first part, the rest is the same as before 
e|---------------------------------------------------------------| 
B|---------------------------------------------------------------| 
G|---------------------------------------------------------------| 
D|--5------5---5------5---5------5----3--3-3--5--5---------------| 
A|--5------5---6------8---5------5----5--3-3--6--5---------------| 
D|--5--5-5-5-5-5--5-5-5-5-5--5-5-5-5--3--3-3--5--5---------------| 




Solo 
e|---------------------------------------------------------------| 
B|---------------------------------------------------------------| 
G|--3--3-5-7-5h7p5-3-2--/9--5-5--/8----5-7-8-7h8p7-5-3--3--2-2---| 
D|-----------------------------------5---------------------------| 
A|---------------------------------------------------------------| 
D|---------------------------------------------------------------| 

e|---------------------------------------------------------------| 
B|---------------------------------------------------------------| 
G|--/5-3--7-3-5---3-2-5---8-5-7-5h7p5-3-2--3-0---3-5-0---5-7-3---| 
D|--------------3-------3----------------------3-------3-------3-| 
A|---------------------------------------------------------------| 
D|---------------------------------------------------------------| 

e|---------------------------------------------------------------| 
B|---------------------------------------------------------------| 
G|--7-8-5---8--10-8-7----------------10-8-7----------------------| 
D|--------5-----------10-8-7----------------10-8-7---------------| 
A|---------------------------10-8------------------10-8-8/10-----| 
D|---------------------------------------------------------------| 



Rhythm part after the solo 
e|---------------------------------------------------------------| 
B|---------------------------------------------------------------| 
G|---------------------------------------------------------------| 
D|--5-5--8-10-3-5--5--5--8-8--8--3-------------------------------| 
A|--5-5--6-8--3-5--5--5--5-6--8--3-------------------------------| 
D|--5-5-------3-5--5--5-------8--3-------------------------------| 




"Dying for salvation with dedication..." part (Goes twice) 
e|---------------------------------------------------------------| 
B|---------------------------------------------------------------| 
G|---------------------------------------------------------------| 
D|-3-----3-----3-----3------3-----3-----3-----3------5-----5-----| 
A|-1-1-1-1-1-1-1-1-1-1-1-1--3-----3-----3-----3------3-3-3-3-3-3-| 
D|--------------------------3-3-3-3-3-3-3-3-3-3-3-3--------------| 

e|---------------------------------------------------------------| 
B|---------------------------------------------------------------| 
G|---------------------------------------------------------------| 
D|--5-----5------8------8------8--3------------------------------| 
A|--3-3-3-3-3-3--8------6-6-6--8--3------------------------------| 
D|---------------8-8-8---------8--3------------------------------| 



"In the name of Goddddd" part 
e|---------------------------------------------------------------| 
B|---------------------------------------------------------------| 
G|-----5---7---8---10--------------------------------------------| 
D|-3-----------8---10--------------------------------------------| 
A|-1---3---5---6---8---------------------------------------------| 
D|---------------------------------------------------------------| 



Pitched up Chorus/ending 
e|---------------------------------------------------------------| 
B|---------------------------------------------------------------| 
G|---------------------------------------------------------------| 
D|--6-----6------6------8------4-----4------6-----6------8-----8-| 
A|--4-4-4-4------6------8------4-----4------4-4-4-6------8-----8-| 
D|-----------6-6-6--8-8-8-8-8--4-4-4-4-4-4--------6-6-6--8-8-8-8-| 

e|---------------------------------------------------------------| 
B|---------------------------------------------------------------| 
G|---------------------------------------------------------------| 
D|------6------6---11------11------6------6----------------------| 
A|------6--4-4-4---9--9-9--9--9-9--4-4-4--6----------------------| 
D|--6-6-6---------------------------------6-6-6------------------| 

e|---------------------------------------------------------------| 
B|---------------------------------------------------------------| 
G|---------------------------------------------------------------| 
D|--6-----6------6------8------4-----4------6-----6------8-----8-| 
A|--4-4-4-4------6------8------4-----4------4-4-4-6------8-----8-| 
D|-----------6-6-6--8-8-8-8-8--4-4-4-4-4-4--------6-6-6--8-8-8-8-| 

e|---------------------------------------------------------------| 
B|---------------------------------------------------------------| 
G|---------------------------------------------------------------| 
D|------6------6---11------11------6------6------11------11------| 
A|------6--4-4-4---9--9-9--9--9-9--4------6------9--9-9--9--9-9--| 
D|--6-6-6---------------------------------6----------------------| 

e|---------------------------------------------------------------| 
B|---------------------------------------------------------------| 
G|---------------------------------------------------------------| 
D|--6-----6-----11------11--------4-----6----4-4-----------------| 
A|--4-----6-----9--9-9--9--9-9----6-----6----6-6-----------------| 
D|--------6-----------------------------6------------------------| 



************************************ 

| (n)  Ghost note 
| h    Hammer-on 
| p    Pull-off 
| /    Slide up 

************************************ 
		  

See also:

tabs Royal Republic - Everybody Wants To Be An Astronaut tabs Royal Republic - I Must Be Out Of My Mind tabs Anna Ternheim - To Be Gone tabs Sabaton - Resist And Bite tabs Opeth - Wreath tabs Her Bright Skies - Heartbreaker
e-chords

Other versions:

tabs Ash Grunwald - The Last Stand tabs Sabaton - The Last Stand
auto scroll beats size up size down change color hide chords drawings
tab show chords e-chords YouTube Clip e-chords hide all tabs e-chords go to top tab

share