Sabaton

Resist And Bite

Sabaton

tabs

by  EDSOOLIVEIRA

save to print version add songbook text version e-mail correct tuner
chordsukulelecavacokeyboardtabbassdrumsharmonicaflute Guitar Pro
close

there isn't a video lesson for this song

chords

Resist And Bite

	  		So here is Resist And Bite from their latest album Heroes. Seems pretty straight forward. As always, any  
corrections, leave a comment below. Thanks 

INTRO 
E|---------------------------------------------------------------------------------| 
B|-0~---12-0-0-7-0-0-12-0-0-7-0-0-12-0-0-7-0-0-12-0-0-8-0-0-12-0-10-0-0-5-0-0-10-0-| 
G|---------------------------------------------------------------------------------| 
D|---------------------------------------------------------------------------------| 
A|---------------------------------------------------------------------------------| 
E|---------------------------------------------------------------------------------| 

E|--------------------------------------------------------------------------| 
B|-12-0-0-7-0-0-12-0-0-7-0-0-12-0-7-0-15-0-0-12-0-0-15-0-14-0-0-10-0-0-14-0-| 
G|--------------------------------------------------------------------------| 
D|--------------------------------------------------------------------------| 
A|--------------------------------------------------------------------------| 
E|--------------------------------------------------------------------------| 

VERSE 
E|----------------------------------------------------------------------------| 
B|-12-0-0-7-0-0-12-0-0-7-0-0-12-0-0-7-0-0-12-0-0-8-0-0-12-0-10-0-0-5-0-0-10-0-| 
G|----------------------------------------------------------------------------| 
D|----------------------------------------------------------------------------| 
A|----------------------------------------------------------------------------| 
E|----------------------------------------------------------------------------| 

E|--------------------------------------------------------------------------| 
B|-12-0-0-7-0-0-12-0-0-7-0-0-12-0-7-0-15-0-0-12-0-0-15-0-14-0-0-10-0-0-14-0-| 
G|--------------------------------------------------------------------------| 
D|--------------------------------------------------------------------------| 
A|--------------------------------------------------------------------------| 
E|--------------------------------------------------------------------------| 

E|----------------------------------------------------------------------------| 
B|-12-0-0-7-0-0-12-0-0-7-0-0-12-0-0-7-0-0-12-0-0-8-0-0-12-0-10-0-0-5-0-0-10-0-| 
G|----------------------------------------------------------------------------| 
D|----------------------------------------------------------------------------| 
A|----------------------------------------------------------------------------| 
E|----------------------------------------------------------------------------| 
 | 
E|----------------------------------------------------------------------------| 
B|----------------------------------------------------------------------------| 
G|----------------------------------------------------------------------------| 
D|-4~-------------------------------------------------------------------------| 
A|-4~----------------------------------------2-2-2----------------------------| 
E|-2~----------------------------------------2-2-3----------------------------| 
 PM                                          . . . 

E|--------------------------------------------------------------------------| 
B|-12-0-0-7-0-0-12-0-0-7-0-0-12-0-7-0-15-0-0-12-0-0-15-0-14-0-0-10-0-0-14-0-| 
G|--------------------------------------------------------------------------| 
D|--------------------------------------------------------------------------| 
A|--------------------------------------------------------------------------| 
E|--------------------------------------------------------------------------| 
 | 
E|--------------------------------------------------------------------------| 
B|--------------------------------------------------------------------------| 
G|--------------------------------------------------------------------------| 
D|-4~-----------------------------------------------------------------------| 
A|-4~-------------------------------------------2-2-2---------------------4-| 
E|-2~-------------------------------------------2-2-3---------------------2-| 
 PM                                             . . .                     . 

E|----------------------------------------------------------------------------| 
B|-12-0-0-7-0-0-12-0-0-7-0-0-12-0-0-7-0-0-12-0-0-8-0-0-12-0-10-0-0-5-0-0-10-0-| 
G|----------------------------------------------------------------------------| 
D|----------------------------------------------------------------------------| 
A|----------------------------------------------------------------------------| 
E|----------------------------------------------------------------------------| 
 | 
E|----------------------------------------------------------------------------| 
B|----------------------------------------------------------------------------| 
G|----------------------------------------------------------------------------| 
D|-4~-------------------------------------------------------------------------| 
A|-4~----------------------------------------2-2-2----------------------------| 
E|-2~----------------------------------------2-2-3----------------------------| 
 PM                                          . . . 

E|--------------------------------------------------------------------------| 
B|-12-0-0-7-0-0-12-0-0-7-0-0-12-0-7-0-15-0-0-12-0-0-15-0-14-0-0-10-0-0-14-0-| 
G|--------------------------------------------------------------------------| 
D|--------------------------------------------------------------------------| 
A|--------------------------------------------------------------------------| 
E|--------------------------------------------------------------------------| 
 | 
E|--------------------------------------------------------------------------| 
B|--------------------------------------------------------------------------| 
G|--------------------------------------------------------------------------| 
D|-4~---------------------------------------------------------------------2-| 
A|-4~-------------------------------------------2-2---2---4---5---4---5-----| 
E|-2~-------------------------------------------2-2-------------------------| 
 PM                                             . .                        

PRE Chorus 
E|-15-12-12-14-12-12-15-12-12-14-15-12-14-12-10-----12-10-9-----10-9-7-0-0-9-| 
B|---------------------------------------------10-10-------10-10-------------| 
G|---------------------------------------------------------------------------| 
D|---------------------------------------------------------------------------| 
A|---------------------------------------------------------------------------| 
E|---------------------------------------------------------------------------| 
 | 
E|---------------------------------------------------------------------------| 
B|---------------------------------------------------------------------------| 
G|---------------------------------------------------------------------------| 
D|-------------------------------------------7~-----------------2~-----------| 
A|-2~----------------------------------------5~-----------------0~-----------| 
E|-0~------------------------------------------------------------------------| 

E|-12-12-12-14-12-12-15-12-12-14-12-12-15-12-14-12-19-15-15-17-15-15-19-19^-| 
B|--------------------------------------------------------------------------| 
G|--------------------------------------------------------------------------| 
D|--------------------------------------------------------------------------| 
A|--------------------------------------------------------------------------| 
E|--------------------------------------------------------------------------| 
 | 
E|--------------------------------------------------------------------------| 
B|--------------------------------------------------------------------------| 
G|--------------------------------------------------------------------------| 
D|--------------------------------------------------------------------------| 
A|-2~----------------------------------------------5~----------4~----x\\\\\-| 
E|-0~----------------------------------------------3~----------2~----x\\\\\-| 

Chorus 
E|--------------------------------------------------------------------------| 
B|-12-0-0-7-0-0-12-0-0-7-0-0-12-0-0-7-0-12-0-0-8-0-0-12-0-10-0-0-5-0-0-10-0-| 
G|--------------------------------------------------------------------------| 
D|--------------------------------------------------------------------------| 
A|--------------------------------------------------------------------------| 
E|--------------------------------------------------------------------------| 
 | 
E|--------------------------------------------------------------------------| 
B|--------------------------------------------------------------------------| 
G|--------------------------------------------------------------------------| 
D|-4---------------------------2--4--2--5------2-----4----------------------| 
A|-2---2---2---2---2---2---2---2--2--2--2------2-----2----2---2---2----2----| 
E|--------------------------------------------------------------------------| 
 |PM   .   .   .   .   .   .                              .   .   .    . 
E|-------------------------------------------------------------------------- 
B|-------------------------------------------------------------------------- 
G|-7---------------------------6--7--6--9------6-----7---------------------- 
D|-9---9---9---9---9---9---9---7--9--7--9------7-----9----9---9---9----9---- 
A|-------------------------------------------------------------------------- 
E|-------------------------------------------------------------------------- 
 PM    .   .   .   .   .   .                              .   .   .    . 

E|----------------------------------------------------------------------------| 
B|-12-0-0-7-0-0-12-0-0-7-0-0-12-0-0-7-0-15-0-0-12-0-0-15-0-14-0-0-10-0-0-14-0-| 
G|----------------------------------------------------------------------------| 
D|----------------------------------------------------------------------------| 
A|----------------------------------------------------------------------------| 
E|----------------------------------------------------------------------------| 
 | 
E|----------------------------------------------------------------------------| 
B|----------------------------------------------------------------------------| 
G|----------------------------------------------------------------------------| 
D|-4---------------------------2--4--2----------7--x-2~-----------------------| 
A|-2---2---2---2---2---2---2---2--2--2--5--x----5--x-0~-----------------------| 
E|--------------------------------------3--x----------------------------------| 
 |PM   .   .   .   .   .   . 
E|----------------------------------------------------------------------------| 
B|----------------------------------------------------------------------------| 
G|-7---------------------------6--7--6--7-------7--x-6~-----------------------| 
D|-9---9---9---9---9---9---9---7--9--7--9--x----7--x-7~-----------------------| 
A|----------------------------------------------------------------------------| 
E|----------------------------------------------------------------------------| 
 PM    .   .   .   .   .   .   

E|--------------------------------------------------------------------------| 
B|-12-0-0-7-0-0-12-0-0-7-0-0-12-0-0-7-0-12-0-0-8-0-0-12-0-10-0-0-5-0-0-10-0-| 
G|--------------------------------------------------------------------------| 
D|--------------------------------------------------------------------------| 
A|--------------------------------------------------------------------------| 
E|--------------------------------------------------------------------------| 
 | 
E|--------------------------------------------------------------------------| 
B|--------------------------------------------------------------------------| 
G|--------------------------------------------------------------------------| 
D|-4---------------------------2--4--2--5------2-----4------------2---------| 
A|-2---2---2---2---2---2---2---2--2--2--2------2-----2----2---2---2----2----| 
E|--------------------------------------------------------------------------| 
 |PM   .   .   .   .   .   .                              .   .   .    . 
E|--------------------------------------------------------------------------| 
B|--------------------------------------------------------------------------| 
G|-7---------------------------6--7--6--9------6-----7------------6---------| 
D|-9---9---9---9---9---9---9---7--9--7--9------7-----9----9---9---7---------| 
A|--------------------------------------------------------------------------| 
E|--------------------------------------------------------------------------| 
 PM    .   .   .   .   .   .                              .   .   .    . 

E|----------------------------------------------------------------------------| 
B|-12-0-0-7-0-0-12-0-0-7-0-0-12-0-0-7-0-15-0-0-12-0-0-15-0-14-0-0-10-0-0-14-0-| 
G|----------------------------------------------------------------------------| 
D|----------------------------------------------------------------------------| 
A|----------------------------------------------------------------------------| 
E|----------------------------------------------------------------------------| 
 | 
E|----------------------------------------------------------------------------| 
B|----------------------------------------------------------------------------| 
G|----------------------------------------------------------------------------| 
D|-4---------------------------2--4--2----------7--x-2~-----------------------| 
A|-2---2---2---2---2---2---2---2--2--2--5--x----5--x-0~-----------------------| 
E|--------------------------------------3--x----------------------------------| 
|PM   .   .   .   .   .   . 
E|----------------------------------------------------------------------------| 
B|----------------------------------------------------------------------------| 
G|-7---------------------------6--7--6--7-------7--x-6~-----------------------| 
D|-9---9---9---9---9---9---9---7--9--7--9--x----7--x-7~-----------------------| 
A|----------------------------------------------------------------------------| 
E|----------------------------------------------------------------------------| 
  PM   .   .   .   .   .   . 

BRIDGE 
E|-------------------------------------|--------------------------------------------------| 
B|-------------------------------------|--------------------------------------------------| 
G|-------------------------------------|------------------------------------------------7-| 
D|-------------------------------------|------------------------------------------7h9h10--| 
A|-------------------------------------|--------------------------------------------------| 
E|-------------------------------------|--------------------------------------------------| 
 |PM                                                                              . . . . 
E|-------------------------------------|--------------------------------------------------| 
B|-------------------------------------|--------------------------------------------------| 
G|-------------------------------------|--------------------------------------------------| 
D|-4---4-4----7--7-7--4---4------5--5--|-4-4-4-4----4-4-7-7---4-4-4-4-----------5-----5---| 
A|-4---4-4----7--5-5--4---4-2--4---4---|-2-2-2-2-2--2-2-7-5---2-2-2-2-2--2-2--4---4-------| 
E|-2---2-2----5--5-5--2---2-0--2-3-2-3-|-2-2-2-2-2--2-2-5-5---2-2-2-2-2--0-0--2-3-2---3---| 
                                                                                        

SOLO 
E|--------------------------------------10/13~--12h13p12---------------------------| 
B|-----8/10~--8-----8-----------------------------------15-13~---13-15~------------| 
G|-9------------9~----9\7~--------7-9--------------------------12---------------9--| 
D|---7----------------------7h9h10----7----------------------------------9h11h12---| 
A|---------------------------------------------------------------------------------| 
E|---------------------------------------------------------------------------------| 
 |PM                        . . . . 
E|---------------------------------------------------------------------------------| 
B|---------------------------------------------------------------------------------| 
G|---------------------------------------------------------------------------------| 
D|-2--------------5-----------------2-----------------------5----------------------| 
A|-0--------------3-----5~----------0---3~------------------3-------5--------------| 
E|----------------------3~--------------1~------------------3-------3--------------| 

E|-----------------------------10------------------------------------9p5---10-----9-----10/12-| 
B|------12~---10-----10----------------10/12~-10------------------------5---------------------| 
G|-11------------11~----9~---------11-----------11-9-\7~~--7p6----9------6---11----11---------| 
D|----9---------------------9--------9-------------------------9p7-------------9-----9--------| 
A|--------------------------------------------------------------------------------------------| 
E|--------------------------------------------------------------------------------------------| 
 | 
E|--------------------------------------------------------------------------------------------| 
B|--------------------------------------------------------------------------------------------| 
G|--------------------------------------------------------------------------------------------| 
D|-4---------------7----2-------------------------------7------------------4------------------| 
A|-2---------------5----0------2-------5----------------5---------7--------2------------------| 
E|-----------------------------2-------3--------------------------5---------------------------| 

E|-14-12h14p12--12-------14---14^-r-12-------17~--------| 
B|------------15-----------------------15---------------| 
G|-----------------14~-------------------14-------------| 
D|------------------------------------------------------| 
A|-------------------------------------------------x\\\-| 
E|-------------------------------------------------x\\\-| 
 | 
E|------------------------------------------------------| 
B|------------------------------------------------------| 
G|------------------------------------------------------| 
D|-7----------------------------------------------------| 
A|-5------------7-------------5--------------7-----x\\\-| 
E|--------------5-------------3--------------5-----x\\\-| 

BREAK 
E|--------------------------------------------------------------------------| 
B|-12-0-0-7-0-0-12-0-0-7-0-0-12-0-0-7-0-12-0-0-8-0-0-12-0-10-0-0-5-0-0-10-0-| 
G|--------------------------------------------------------------------------| 
D|--------------------------------------------------------------------------| 
A|--------------------------------------------------------------------------| 
E|--------------------------------------------------------------------------| 
 | 
E|--------------------------------------------------------------------------| 
B|--------------------------------------------------------------------------| 
G|-11--------------------9---11----9----12-----------11----------------9----| 
D|-9---------------------9---9-----9----9------------9-----------------7----| 
A|--------------------------------------------------------------------------| 
E|--------------------------------------------------------------------------| 

E|----------------------------------------------------------------------------| 
B|-12-0-0-7-0-0-12-0-0-7-0-0-12-0-0-7-0-15-0-0-12-0-0-15-0-14-0-0-10-0-0-14-0-| 
G|----------------------------------------------------------------------------| 
D|----------------------------------------------------------------------------| 
A|----------------------------------------------------------------------------| 
E|----------------------------------------------------------------------------| 
 | 
E|----------------------------------------------------------------------------| 
B|--------------------------------------8-------------------------------------| 
G|-11--------------------9---11----9----7-------------9-----------------------| 
D|-9---------------------9---9-----9----5-------------7-----------------------| 
A|----------------------------------------------------------------------------| 
E|----------------------------------------------------------------------------| 

E|--------------------------------------------------------------------------| 
B|-12-0-0-7-0-0-12-0-0-7-0-0-12-0-0-7-0-12-0-0-8-0-0-12-0-10-0-0-5-0-0-10-0-| 
G|--------------------------------------------------------------------------| 
D|--------------------------------------------------------------------------| 
A|--------------------------------------------------------------------------| 
E|--------------------------------------------------------------------------| 
 | 
E|--------------------------------------------------------------------------| 
B|--------------------------------------------------------------------------| 
G|-11--------------------9---11----9----12-----------11----------------9----| 
D|-9---------------------9---9-----9----9------------9-----------------7----| 
A|--------------------------------------------------------------------------| 
E|--------------------------------------------------------------------------| 

E|----------------------------------------------------------------------------| 
B|-12-0-0-7-0-0-12-0-0-7-0-0-12-0-0-7-0-15-0-0-12-0-0-15-0-14-0-0-10-0-0-14-0-| 
G|----------------------------------------------------------------------------| 
D|----------------------------------------------------------------------------| 
A|----------------------------------------------------------------------------| 
E|----------------------------------------------------------------------------| 
 | 
E|----------------------------------------------------------------------------| 
B|----------------------------------------------------------------------------| 
G|----------------------------------------------------------------------------| 
D|---------------------------------------------7---x--2~----------------------| 
A|--------------------------------------5---x--5---x--0~----------------------| 
E|--------------------------------------3---x---------------------------------| 
 | 
E|----------------------------------------------------------------------------| 
B|----------------------------------------------------------------------------| 
G|-11--------------------9---11----9----12-----11-----9-----------------------| 
D|-9---------------------9---9-----9----12-----12-----11----------------------| 
A|----------------------------------------------------------------------------| 
E|----------------------------------------------------------------------------| 

Chorus/OUTRO 
E|--------------------------------------------------------------------------| 
B|-12-0-0-7-0-0-12-0-0-7-0-0-12-0-0-7-0-12-0-0-8-0-0-12-0-10-0-0-5-0-0-10-0-| 
G|--------------------------------------------------------------------------| 
D|--------------------------------------------------------------------------| 
A|--------------------------------------------------------------------------| 
E|--------------------------------------------------------------------------| 
 | 
E|--------------------------------------------------------------------------| 
B|--------------------------------------------------------------------------| 
G|--------------------------------------------------------------------------| 
D|-4---------------------------2--4--2--5------2-----4----------------------| 
A|-2---2---2---2---2---2---2---2--2--2--2------2-----2----2---2---2----2----| 
E|--------------------------------------------------------------------------| 
 |PM   .   .   .   .   .   .                              .   .   .    . 
E|----------------------------------------------------------------------------| 
B|----------------------------------------------------------------------------| 
G|-11--------------------------9--11-9--12------9--x-11~----------------------| 
D|-9---9---9---9---9---9---9---9--9--9--9--x----9--x-9~~----------------------| 
A|----------------------------------------------------------------------------| 
E|----------------------------------------------------------------------------| 
  PM   .   .   .   .   .   . 

E|----------------------------------------------------------------------------| 
B|-12-0-0-7-0-0-12-0-0-7-0-0-12-0-0-7-0-15-0-0-12-0-0-15-0-14-0-0-10-0-0-14-0-| 
G|----------------------------------------------------------------------------| 
D|----------------------------------------------------------------------------| 
A|----------------------------------------------------------------------------| 
E|----------------------------------------------------------------------------| 
 | 
E|----------------------------------------------------------------------------| 
B|----------------------------------------------------------------------------| 
G|----------------------------------------------------------------------------| 
D|-4---------------------------2--4--2----------7--x-2~-----------------------| 
A|-2---2---2---2---2---2---2---2--2--2--5--x----5--x-0~-----------------------| 
E|--------------------------------------3--x----------------------------------| 
 |PM   .   .   .   .   .   . 
E|----------------------------------------------------------------------------| 
B|----------------------------------------------------------------------------| 
G|-11--------------------------9--11-9--12------9--x-11~----------------------| 
D|-9---9---9---9---9---9---9---9--9--9--9--x----9--x-9~~----------------------| 
A|----------------------------------------------------------------------------| 
E|----------------------------------------------------------------------------| 
  PM   .   .   .   .   .   . 

E|--------------------------------------------------------------------------| 
B|-12-0-0-7-0-0-12-0-0-7-0-0-12-0-0-7-0-12-0-0-8-0-0-12-0-10-0-0-5-0-0-10-0-| 
G|--------------------------------------------------------------------------| 
D|--------------------------------------------------------------------------| 
A|--------------------------------------------------------------------------| 
E|--------------------------------------------------------------------------| 
 | 
E|--------------------------------------------------------------------------| 
B|--------------------------------------------------------------------------| 
G|--------------------------------------------------------------------------| 
D|-4---------------------------2--4--2--5------2-----4------------2---------| 
A|-2---2---2---2---2---2---2---2--2--2--2------2-----2----2---2---2----2----| 
E|--------------------------------------------------------------------------| 
 |PM   .   .   .   .   .   .                              .   .   .    . 
E|----------------------------------------------------------------------------| 
B|----------------------------------------------------------------------------| 
G|-11--------------------------9--11-9--12------9--x-11~----------------------| 
D|-9---9---9---9---9---9---9---9--9--9--9--x----9--x-9~~----------------------| 
A|----------------------------------------------------------------------------| 
E|----------------------------------------------------------------------------| 
 PM    .   .   .   .   .   .                               

E|----------------------------------------------------------------------------| 
B|-12-0-0-7-0-0-12-0-0-7-0-0-12-0-0-7-0-15-0-0-12-0-0-15-0-14-0-0-10-0-0-14-0-| 
G|----------------------------------------------------------------------------| 
D|----------------------------------------------------------------------------| 
A|----------------------------------------------------------------------------| 
E|----------------------------------------------------------------------------| 
 | 
E|----------------------------------------------------------------------------| 
B|----------------------------------------------------------------------------| 
G|----------------------------------------------------------------------------| 
D|-4---------------------------2--4--2---------7---x--2~----------------------| 
A|-2---2---2---2---2---2---2---2--2--2--5--x---5---x--0~----------------------| 
E|--------------------------------------3--x----------------------------------| 
|PM   .   .   .   .   .   . 
E|----------------------------------------------------------------------------| 
B|----------------------------------------------------------------------------| 
G|-11--------------------------9--11-9--12------9--x-11~----------------------| 
D|-9---9---9---9---9---9---9---9--9--9--9--x----9--x-9~~----------------------| 
A|----------------------------------------------------------------------------| 
E|----------------------------------------------------------------------------| 
  PM   .   .   .   .   .   . 

E|---------------------------------------|---------------------------------------|----| 
B|-15-0-0-12-0-0-15-0-0-14-0-10-0-0-14-0-|-15-0-0-12-0-0-15-0-0-14-0-10-0-0-14-0-|----| 
G|---------------------------------------|---------------------------------------|----| 
D|---------------------------------------|---------------------------------------|----| 
A|---------------------------------------|---------------------------------------|----| 
E|---------------------------------------|---------------------------------------|----| 
 | 
E|---------------------------------------|---------------------------------------|----| 
B|---------------------------------------|---------------------------------------|----| 
G|---------------------------------------|---------------------------------------|----| 
D|--------7---x--2~----------------------|--------7---x--2~----------------------|-4~-| 
A|-5---x--5---x--0~----------------------|-5---x--5---x--0~----------------------|-2~-| 
E|-3---x---------------------------------|-3---x---------------------------------|-2~-| 
 | 
E|---------------------------------------|---------------------------------------|----| 
B|---------------------------------------|---------------------------------------|----| 
G|-12--x--11--x--9-----------------------|-12--x--11--x--9-----------------------|-11-| 
D|-12--x--12--x--11----------------------|-12--x--12--x--11----------------------|-9--| 
A|---------------------------------------|---------------------------------------|----| 
E|---------------------------------------|---------------------------------------|----| 

* 
* 
* 
* 
* 

A bit that i tabbed after i completed the rest of the song. Slots in the solo at the point specifies below 

Harmony played with solo from D|-9h11h12-| 
E|---------------------------------------------------------------------------------| 
B|------------------------------------------------------------------------------17-| 
G|-----------------------------------------------------------------------1618h19---| 
D|---------------------------------------------------------------------------------| 
A|---------------------------------------------------------------------------------| 
E|---------------------------------------------------------------------------------| 


E|------19~--17-----17--------22-----17/19~-17---------------------------------14-----12--------| 
B|-19-----------19~----17~-------19-----------19-17\15~--1514----17--17p14-------12------12--12-| 
G|----16-------------------16--------------------------------1614---------14-------11------11---| 
D|---------------------------------21---------------------------------------14------------------| 
A|----------------------------------------------------------------------------------------------| 
E|----------------------------------------------------------------------------------------------| 


E|--------------------------17---17^-r-15-14--21~~-| 
B|-14-14h15p14-12-14------------------------15-----| 
G|-------------------------------------------------| 
D|--------------------14~--------------------------| 
A|-------------------------------------------------| 
E|-------------------------------------------------| 
		  

See also:

tabs Opeth - The Lines In My Hand tabs The Royal Concept - Gimme Twice (intro) tabs The Radio Dept - Slottet 2 tabs Opeth - Sorceress tabs Opeth - Elysian Woes tabs Royal Republic - I Must Be Out Of My Mind
e-chords

Other versions:

tabs Sabaton - Resist And Bite
auto scroll beats size up size down change color hide chords drawings
tab show chords e-chords YouTube Clip e-chords hide all tabs e-chords go to top tab

share