Ryan Cabrera

True (ver. 2)

Ryan Cabrera

tabs Expert expert

by  MR_HARDCORE_08

save to print version add songbook text version e-mail correct tuner
chordsukulelecavacokeyboardtabbassdrumsharmonicaflute Guitar Pro
close

there isn't a video lesson for this song

chords

True (ver. 2)

	  		Intro 
 
E|------x------------x------------x------------x------------x------------x-----------x------------x| 
B|------x------------x------------x------------x------------x------------x-----------x------------x| 
G|---5--x----4-------x-----0h2-0--x---4--------x----5-------x---4--------x---0h2-0---x--0---------x| 
D|----0-x-----0------x-----0---0--x----0-------x-----0------x----0-------x---0---0---x---0--------x| 
A|--0---x------------x------------x------------x---0--------x------------x-----------x------------x| 
E|---3--x---3--------x---3--------x---3--------x----3-------x---3--------x--3--------x--3---------x| 
Verse:   "I won't talk..." 
E|------x------------x------------x------------x------------x------------x-----------x------------x| 
B|------x------------x------------x------------x------------x------------x-----------x------------x| 
G|---5--x----4-------x-----0h2-0--x---4--------x----5-------x---4--------x---0h2-0---x--4---------x| 
D|----0-x-----0------x-----0---0--x----0-------x-----0------x----0-------x---0---0---x---0--------x| 
A|--0---x------------x------------x------------x---0--------x------------x-----------x------------x| 
E|---3--x---3--------x---3--------x---3--------x----3-------x---3--------x--3--------x--3---------x| 
 
   "That you belong with me..." 
E|------x------0-----x------------x------0-----x| 
B|------x------------x------------x------------x| 
G|---2--x---0--------x----0h2-----x---0--------x| 
D|------x------------x------------x------------x| 
A|--02--x---2--------x---02-------x---2--------x| 
E|------x------------x------------x------------x| 
    "You might think..." 
E|------x------------x------------x------------x------------x------------x-----------x------------x| 
B|------x------------x------------x------------x------------x------------x-----------x------------x| 
G|---5--x----4-------x-----0h2-0--x---4--------x----5-------x---4--------x---0h2-0---x--4---------x| 
D|----0-x-----0------x-----0---0--x----0-------x-----0------x----0-------x---0---0---x---0--------x| 
A|--0---x------------x------------x------------x---0--------x------------x-----------x------------x| 
E|---3--x---3--------x---3--------x---3--------x----3-------x---3--------x--3--------x--3---------x| 
 
   "I'm attached to you..." 
E|------x------0-----x------------x------0-----x| 
B|------x------------x------------x------------x| 
G|---2--x---0--------x----0h2-----x---0--------x| 
D|------x------------x------------x------------x| 
A|--02--x---2--------x---02-------x---2--------x| 
E|------x------------x------------x------------x| 
 
Pre-Chorus:  "mmm...i'm weak..." 
E|------0------x------0---x------0-----x------0----x------0-----x------0----------x------0---x------0-x-----| 
B|--5----------x--7-------x--8---------x--7--------x--5---------x--7--------------x--8-------x--7-----x--5--| 
G|-------------x----------x------------x-----------x------------x-----------------x----------x--------x-----| 
D|---5---------x---7------x---9--------x---7-------x---5--------x---7-------------x---9------x---7----x-----| 
A|--3----------x--5-------x--7---------x--5--------x--3---------x--5--------------x--7-------x--5-----x--3--| 
E|-------------x----------x------------x-----------x------------x-----------------x----------x--------x-----| 
 
Chorus: "i've waited all my life..." 
E|--3--x--3--x--3--x--3--x--3--x--3--x--3--x--3--x--3--x--3--x--3--x--3--x--3--x--3--x--3--x--3--x| 
B|--3--x--3--x--3--x--3--x--3--x--3--x--3--x--3--x--3--x--3--x--3--x--3--x--3--x--3--x--3--x--3--x| 
G|--0--x--0--x--2--x--2--x--0--x--0--x--0--x--0--x--0--x--0--x--2--x--2--x--0--x--0--x--0--x--0--x| 
D|-----x-----x-----x-----x-----x-----x-----x-----x-----x-----x-----x-----x-----x-----x-----x-----x| 
A|-----x-----x-----x-----x-----x-----x-3---x-----x-----x-----x-----x-----x-----x-----x-3---x-----x| 
E|-3---x-----x-2---x-----x-0---x-----x-----x-----x-3---x-----x-2---x-----x-0---x-----x-----x-----x| 
"all my life i've waited... (Don't know the lead part, just chords) 
B Diminished  
supposedly    Em7               Cadd9 
E|--X-------x--0--x------------x--3--x| 
B|--X-------x--3--x------------x--3--x| 
G|--X-------x--0--x------------x--0--x| 
D|--9-------x--2--x------------x--2--x| 
A|--9-------x--2--x------------x--3--x| 
E|--7-------x--0--x------------x--0--x| 
Verse 2:  "you dont know..."           
E|------x--------x---------x--------x|------x--------x---------x--------| 
B|------x--------x---------x--------x|------x--------x---------x--------| 
G|---5--x---4----x----55---x---4----x|---5--x---4----x----55---x---4----| 
D|----5-x----0---x----55---x---5-0--x|----5-x----0---x----55---x---5-0--| 
A|--0---x--------x---------x--------x|--0---x--------x---------x--------| 
E|---3--x---3----x---3-----x--------x|---3--x---3----x---3-----x--------| 
  "i'm afraid to move.." 
E|------x------0-----x------------x------0-----x| 
B|------x------------x------------x------------x| 
G|---2--x---0--------x----0h2-----x---0--------x| 
D|------x------------x------------x------------x| 
A|--02--x---2--------x---02-------x---2--------x| 
E|------x------------x------------x------------x| 
Pre-Choruse:      "im weak..." 
E|------0------x------0---x------0-----x------0----x------0-----x------0----------x------0---x------0-x------ 
B|--5----------x--7-------x--8---------x--7--------x--5---------x--7--------------x--8-------x--7-----x--5-- 
G|-------------x----------x------------x-----------x------------x-----------------x----------x--------x------| 
D|---5---------x---7------x---9--------x---7-------x---5--------x---7-------------x---9------x---7----x----- 
A|--3----------x--5-------x--7---------x--5--------x--3---------x--5--------------x--7-------x--5-----x--3-- 
E|-------------x----------x------------x-----------x------------x-----------------x----------x--------x------| 
 
Bridge:  
Em        D6/D# 
  I know when I go 
     D6              A7 
I'll be on my way to you 
    Am7   Em      C 
The way   thats   true 
 
Chorus: 
            G              D/F# 
I've waited all my life to cross this line 
Em                      C 
to the only thing thats true 
     G 
So I will not hide 
       D/F#        Em                C 
it's time to try anything to be with you 
B Diminished   Em7      C 
       all my life i've waited 
         G 
this is true 
 
 

		  

Full key step upFull key step up
Half key step upHalf key step up
Half key step downHalf key step down
Full key step downFull key step down
hide glossary

See also:

tabs Michael Jackson - Dirty Diana tabs Michael Jackson - Black or White (ver. 2) tabs Cyndi Lauper - Time After Time tabs Deep Blue Something - Breakfast at Tiffany's tabs Placebo - the biter end tabs Beyoncé - Single Ladies Put A Ring On It
e-chords

Other versions:

tabs Exist Trace - True tabs Ryan Cabrera - True (intro) tabs Ryan Cabrera - True (ver. 2) tabs Hunters And Collectors - True Believers tabs Bouncing Souls - True Believers tabs Millencolin - True Brew
auto scroll beats size up size down change color hide chords drawings
tab show chords e-chords YouTube Clip e-chords hide all tabs e-chords go to top tab

share