Rush

Fly by night

Rush

tabs Expert expert

save to print version add songbook text version e-mail correct tuner
chordsukulelecavacokeyboardtabbassdrumsharmonicaflute Guitar Pro
close

there isn't a video lesson for this song

chords

Fly by night

	  		 

 
 Riff 1: 
   D      G/E     Am    C9      G/B      Gm/Bb     A  G  A 
E|-2--2---3--3-|-------------3-------3---------3------3-------------| 
B|-3--3---3--3-|-------------3-------3---------3---2--3--2----------| 
G|-2--2---0--0-|-------------0-------0---------0---2--0--2----------| 
D|-0--0---2--2-|----------2-------0----------0-----2--0--2----------| 
A|-------------|--0--2--3-------2-------0--1-------0--2--0----------| 
E|-------------|--------------------------------------3-------------| 
 
 Riff 2: 
    G  D     Am        G/D       G  D        A     G  A 
E|--3--2--2------------7--7--|---3--2--2--2--------3-------------| 
B|--3--3--3------------8--8--|---3--3--3--3--2--2--3--2----------| 
G|--0--2--2------------7--7--|---0--2--2--2--2--2--0--2----------| 
D|--0--0--0------------------|---0--0--0--0--2--2--0--2----------| 
A|--2--------3--2-0----------|---2-----------0--0--2--0----------| 
E|--3---------------3--------|---3-----------------3-------------| 
 
 Riff 3: 
    Am    C       G/B      Gm/Bb     A  G  A 
E|-------------3-------3---------3------3-------------| 
B|-------------3-------3---------3---2--3--2----------| 
G|-------------0-------0---------0---2--0--2----------| 
D|----------2-------0----------0-----2--0--2----------| 
A|--0--2--3-------2-------0--1-------0--2--0----------| 
E|--------------------------------------3-------------| 
 
 
 Riff 4: 
   D        F        G  C  D 
E|-2---2----5---5----7--8--10-----------------10------------------| 
B|--3---3----6---6---8--8--10----10---10---10---------------------| 
G|---2---2----5---5--7--9--11------11---11------------------------| 
D|----------------------------------------------------------------| 
A|----------------------------------------------------------------| 
E|----------------------------------------------------------------| 
 
 Riff 5: 
   Am      Fmaj7                        G 
E|-0---0----0---0-----------------------7-7-7-7-7-7---------------| 
B|--1---1----1---1----------------------8-8-8-8-8-8---------------| 
G|---2---2----2---2---------------------7-7-7-7-7-7---------------| 
D|----------------------------------------------------------------| 
A|----------------------------------------------------------------| 
E|----------------------------------------------------------------| 
 
 
 
Intodução: Riff 1: x3 
 
Verso 1: 
 
Riff 1:  
Why try? I know why. 
This feeling inside me says it's time I was gone. 
 
Riff 1: 
Clear head, new life ahead. 
It's time I was king now, not just one more pawn. 
 
Refrão: 
 
Riff 2:   
Fly by night away from here, change my life again. 
 
Riff 2: 
Fly by night, goodbye my dear. 
 
Riff 3: 
My ship isn't coming and I just can't pretend. 
 
Riff 1:  
 
Verso 1: 
 
Riff 1:  
Moon rise, thoughtful eyes. 
Staring back at me from the window beside. 
 
Riff 1:  
No fright, or hindsight. 
Leaving behind that empty feeling inside. 
 
Refrão: 
 
Riff 2:   
Fly by night away from here, change my life again. 
 
Riff 2:  
Fly by night, goodbye my dear. 
 
Riff 3:  
My ship isn't coming and I just can't pretend. Woah! 
 
Solo: 
E|----------------------------------------------------------------| 
B|--6b7--6b7------6p5---5-5--3--5p3-------------------------------| 
G|--------------------7-------------6---5--4--0--3----------------| 
D|--------------------------------------------------2h3p2h3p2h3---| 
A|----------------------------------------------------------------| 
E|----------------------------------------------------------------| 
 
E|--------------------------------7p6p5--7p5--7h8h9--13b14--------| 
B|-------5--6b7--6b7------5h6h8-----------------------------------| 
G|-4h5h7----------------------------------------------------------| 
D|----------------------------------------------------------------| 
A|----------------------------------------------------------------| 
E|----------------------------------------------------------------| 
 
E|-13p11p10--11p10p8--5---5---------------------------------------| 
B|----------------------8---8/11~-------3-3--3-3-3-3-----3-3------| 
G|----------------------------------2h4--------------2h4----------| 
D|----------------------------------------------------------------| 
A|----------------------------------------------------------------| 
E|----------------------------------------------------------------| 
 
E|----------------------------------------------------------------| 
B|-5p32-----------5--7---(solo incompleto!)-----------------------| 
G|-------4--2--4h6------------------------------------------------| 
D|----------------------------------------------------------------| 
A|----------------------------------------------------------------| 
E|----------------------------------------------------------------| 
 
Refrão: 
 
Riff 2:  
Fly by night away from here, change my life again. 
 
Riff 2: 
Fly by night, goodbye my dear. 
 
Riff 3:  
My ship isn't coming and I just can't pretend. 
 
Verso 3: 
 
Riff 4:  
Start a new chapter, I find what I'm after, is changing every day. 
 
Riff 5:  
The change of a season's enough of a reason to want to get away. 
 
Riff 4: 
Quiet and pensive, my thoughts apprehensive, the hours drift away. 
 
Riff 5:  
Leaving my homeland, playing a lone hand, my life begins today. 
 
Refrão: 
 
Riff 2:  
Fly by night away from here, change my life again. 
 
Riff 2: 
Fly by night, goodbye my dear. 
 
Riff 3: 
My ship isn't coming and I just can't pretend. 
 
Riff 3: 
My ship isn't coming and I just can't pretend. 
 
Riff 2: 
Fly by night away from here, change my life again. 
 
Riff 2: 
Fly by night, goodbye my dear. 
 
Riff 3: 
My ship isn't coming and I just can't pretend. 
 
Riff 3: 
My ship isn't coming and I just can't pretend. 
 
Riff 3: 
My ship isn't coming and I just can't pretend.   
 
e para termeinar ele faz um ré: 
    D 
E|--2--| 
B|--3--| 
G|--2--| 
D|--0--| 
A|-----| 
E|-----| 
 
_______________________________________________________ 
Contribuição: Taino Vieira([email protected])   

		  

Full key step upFull key step up
Half key step upHalf key step up
Half key step downHalf key step down
Full key step downFull key step down
auto scroll beats size up size down change color hide chords drawings
tab show chords e-chords YouTube Clip e-chords hide all tabs e-chords go to top tab

share