Royal Republic

Uh Huh

Royal Republic

tabs

by  ADALGOMES

save to print version add songbook text version e-mail correct tuner
chordsukulelecavacokeyboardtabbassdrumsharmonicaflute Guitar Pro
close

there isn't a video lesson for this song

chords

Uh Huh

	  		
Intro: 

e|----------------------------------| 
B|----------------------------------| 
G|-------------------------8-8-8-8--| 
D|-5-5-5-5-5-5-5-5-8-8-8-8-8-8-8-8--| 
A|-5-5-5-5-5-5-5-5-8-8-8-8-6-6-6-6--| 
E|-3-3-3-3-3-3-3-3-6-6-6-6----------| 

*A second guitar can also play this extra bit:* 

e|----------------------------------| 
B|----------------------------------| 
G|----------------------------------| 
D|-5-5-5-5-5-5-5-5-5-5-5-5-5-5-5-5--| 
A|----------------------------------| 
E|----------------------------------| 

Chorus {"Uh, Uh-Huh" 

e|----------------------------------| 
B|----------------------------------| 
G|----------------------------------| 
D|-5-5-5-5-5-3-5-8---8-8-8-8--------| 
A|-5-5-5-5-5-3-5-8---8-8-8-8--------| 
E|-3-3-3-3-3-1-3-6---6-6-6-6--------| 

VERSE ("I'm on a plane...") 

e|----------------------------------| 
B|----------------------------------| 
G|----------------------------------| 
D|-x-x-5-5-x-x-5-x-x-x-8-8-x-x-8-x--| 
A|-x-x-5-5-x-x-5-x-x-x-8-8-x-x-8-x--| 
E|-x-x-3-3-x-x-3-x-x-x-6-6-x-x-6-x--| 

Pre-Chorus 1 ("One more time...") *SAME AS INTRO* 

e|----------------------------------| 
B|----------------------------------| 
G|-------------------------8-8-8-8--| 
D|-5-5-5-5-5-5-5-5-8-8-8-8-8-8-8-8--| 
A|-5-5-5-5-5-5-5-5-8-8-8-8-6-6-6-6--| 
E|-3-3-3-3-3-3-3-3-6-6-6-6----------| 

*A second guitar can also play this extra bit:* 

e|----------------------------------| 
B|----------------------------------| 
G|----------------------------------| 
D|-5-5-5-5-5-5-5-5-5-5-5-5-5-5-5-5--| 
A|----------------------------------| 
E|----------------------------------| 

Pre-Chorus 2 ("She said no way...") 

e|----------------------------------| 
B|----------------------------------| 
G|-------------8--------------------| 
D|-5---8-10--8-8---8-1010108-5------| 
A|-5---8-10--8-6---8-1010108-5------| 
E|-3---6-8---6-----6-8-8-8-6-3------| 

These components remain the same for the rest of the song. 

************************************ 

| /   slide up 
| \   slide down 
| h   hammer-on 
| p   pull-off 
| ~   vibrato 
| +   harmonic 
| x   Mute note 
| b   Bend 
| pb  Pre-bend 
| br  Bend release 
| pbr Pre-bend release 
| brb Bend release bend 

************************************ 
		  

See also:

tabs Refused - Dawkins Christ tabs Royal Republic - Full Steam Spacemachine tabs Opeth - Slither tabs Änglagård - Jordrök tabs Opeth - Wreath tabs Evergrey - Blinded (Intro)
e-chords

Other versions:

tabs Royal Republic - Uh Huh
auto scroll beats size up size down change color hide chords drawings
tab show chords e-chords YouTube Clip e-chords hide all tabs e-chords go to top tab

share