Royal Blood

home > Royal Blood

Figure It Out Tab

Royal Blood

Difficulty: nolevelnolevel

by fernsantana

tuner correct add songbook print version text version save to e-mail
chordsukulelecavacokeyboardtabbassdrumsharmonicsflute Guitar Pro
chords

Figure It Out

  		Hopefully this is enough to get started, all the parts to the song are tabbed but not the structure, 
and the tab isn't perfect. Thanks for using this tab! (Tabbed by George Hughes) 

Intro: 

E|--------------------------------------------------------------| 
B|--------------------------------------------------------------| 
G|--------------------------------------------------------------| 
D|--7--7--7--7--7--7--7--7--7--7--7--7--7--7--7--7--7--7--7--7--| 
A|--7--7--7--7--7--7--7--7--7--7--7--7--7--7--7--7--7--7--7--7--| 
E|--0--0--0--0--0--0--0h-10p0-h10p0--0--0--0--0--0--0--0-h10p0--| 



Verse: 

E|--------------------------------------------------------------| 
B|--------------------------------------------------------------| 
G|--------------------------------------------------------------| 
D|--7--7--7--7--7--7--7--7--7--7--7--7--7--7--7--7--7--7--7--7--| 
A|--7--7--7--7--7--7--7--7--7--7--7--7--7--7--7--7--7--7--7--7--| 
E|--0--0--0--0--0--0--0h-10p0-h10p0--0--0--0--0--0--0--0-h10p0--| 
x2 

E|--------------------------------------------------| 
B|--------------------------------------------------| 
G|--------------------------------------------------| 
D|--7--7--7--7--5--5--5--5--4--4--4--4--3--3--3--3--| 
A|--7--7--7--7--5--5--5--5--4--4--4--4--3--3--3--3--| 
E|--5--5--5--5--3--3--3--3--2--2--2--2--1--1--1--1--| 

E|-------------------------------------------------------| 
B|-------------------------------------------------------| 
G|-------------------------------------------------------| 
D|--7--7--7--7--7--7--7--7--7--7--7--7--7--7--7--7--7--7-| 
A|--7--7--7--7--7--7--7--7--7--7--7--7--7--7--7--7--7--7-| 
E|--0--0--0--0--0--0--0h-10p0-h10p0--0--0--0--0--0--0--0-| 



Fill after 1st Verse: 

E|------------------------------------------------------------------------| 
B|------------------------------------------------------------------------| 
G|------------------------------------------------------------------------| 
D|------------------------------------------------------------------------| 
A|------------------------------------------------------------------------| 
E|--0h10p0h10p0h10p0h10p0h9p0h9p0h9p0h9p0h8p0h8p0h8p0h8p0h7p0h7p0h7p0h7p--| 
x4 



Chorus: 

E|--------------------------------------------------| 
B|--------------------------------------------------| 
G|--------------------------------------------7-----| 
D|--2--2--2--2--5--5--5--5--7--7--7--7--2--2--7--7--| 
A|--2--2--2--2--5--5--5--5--7--7--7--7--2--2--5--7--| 
E|--0--0--0--0--3--3--3--3--5--5--5--5--3p-0-----5--| 
x4 

1st Chorus 
E|--------------------| 
B|--------------------| 
G|--7-----7-----7-----| 
D|--7--7--7--7--7--7--| 
A|--5--7--5--7--5--7--| 
E|-----5-----5-----5--| 

2nd Chorus play this instead: 
E|-------------------------| 
B|-------------------------| 
G|--7-----6-----5----------| 
D|--7--7--6--6--5--5--14\--| 
A|--5--7--4--6--3--5--14\--| 
E|-----5-----4-----3--12\--| 

End Fills: 

E|-----------------------------------------------------------------------------| 
B|-----------------------------------------------------------------------------| 
G|-----------------------------------------------------------------------------| 
D|-----------------------------------------------------------------------------| 
A|-----------------------------------------------------------------------------| 
E|--12----11h12p11\10----10h11p10\9----9h10p9\8p0h3p0h4p0h5p0h6p0h7p0h8p0h9p0--| 

E|-----------------------------------------------------------------------------| 
B|-----------------------------------------------------------------------------| 
G|-----------------------------------------------------------------------------| 
D|-----------------------------------------------------------------------------| 
A|-----------------------------------------------------------------------------| 
E|--10----10h12p10\9----9h12p9\8----8h11p8\7p0h3p0h4p0h5p0h6p0h7p0h8p0h9p0-----| 

E|------------------------------------| 
B|------------------------------------| 
G|------------------------------------| 
D|------------------------------------| 
A|------------------------------------| 
E|--3b4p0h4p0h5p0h6p0h7p0h8p0h9p0h10--| 

E|----------------------------------------------------| 
B|----------------------------------------------------| 
G|-------------0-------------0------------------------| 
D|--2--2--0h2-----2--2--0h2-----2--2-------0----------| 
A|--2--2----------2--2----------2--2--0h2----12--12\--| 
E|--0--0----------0--0----------0--0------------------| 
	  

Search Paypal
auto scroll beats size up size down change color hide chords drawings
tab show chords e-chords YouTube Clip e-chords hide all tabs e-chords go to top tab