Rosie Carney

Humans

Rosie Carney

tabs

by  ANDRSOUZA

save to print version add songbook text version e-mail correct tuner
chordsukulelecavacokeyboardtabbassdrumsharmonicaflute Guitar Pro
close

there isn't a video lesson for this song

chords

Humans

Key:  G# More
Humans Key D#D#
Humans Key EE
Humans Key FF
Humans Key F#F#(one step down)
Humans Key GG(half step down)
Humans Key G#G#(original key)
Humans Key AA(half step up)
Humans Key A#A#(one step up)
Humans Key BB
Humans Key CC
Humans Key C#C#
Humans Key DD
	  		Intro 

E |-------0------0-------0-------0-------0-------0-------0-------0------------| 
B |-----4------4-------4-------4-------2-------2-------2-------2--------------| 
G#|---3------3-------3-------3-------1-------1-------1-------1----------------| 
E |-4------4-------4-------4-------2-------2-------2-------2------------------| 
B |---------------------------------------------------------------------------| 
E |---------------------------------------------------------------------------| 


E |-------0------0-------0-------0-------0-------0-0h2-----2------------------| 
B |-----4------4-------4-------4-------2-------2---2-------2------------------| 
G#|---3------3-------3-------3-------1-------1-----1-------1------------------| 
E |-4------4-------4-------4--------------------------------------------------| 
B |--------------------------------0-------0-------0--------------------------| 
E |---------------------------------------------------------------------------| 


verse 1 

E |-------0------0-------0-------0-------0-------0-------0-------0------------| 
B |-----4------4-------4-------4-------2-------2-------2-------2--------------| 
G#|---3------3-------3-------3-------1-------1-------1-------1----------------|
E |-4------4-------4-------4-------2-------2-------2-------2------------------|x3 
B |---------------------------------------------------------------------------| 
E |---------------------------------------------------------------------------| 

E |-------0------0-------0-------0-------0-------0-0h2-----2-2----------------| 
B |-----4------4-------4-------4-------2-------2---2-------2---1--------------| 
G#|---3------3-------3-------3-------1-------1-----1-------1-----2------------| 
E |-4------4-------4-------4--------------------------------------------------| 
B |--------------------------------0-------0-------0--------------------------| 
E |---------------------------------------------------------------------------| 


Pre-Chorus 

E |---------------------------------------------------------------------------| 
B |-----0-------0-------0-------0-------0-------0-------0-------0-------------| 
G#|-------0-------0-------0-------0-------1-------1-------1-------0-----------| 
E |---0-------0-------0-------0-------0-------0-------0-------0---------------| 
B |-2-------2-------2-------2-------------------------------------------------| 
E |---------------------------------2-------2-------2-------2-----------------| 

E |---------------------------------------------------------------------------| 
B |-----0-------0-------0-------0-------0-------0-------0-------0-------------| 
G#|-------0-------0-------0-------0-------1-------1-------3-------3-----------| 
E |---0-------0-------0-------0-------0-------0-------0-------0---------------| 
B |-2-------2-------2-------2-------------------------------------------------| 
E |---------------------------------2-------2-------4-------4-----------------| 


E |----------------------------------| 
B |-----0-------0-------0-------0----| 
G#|-------5-------5-------5-------5--| 
E |---0-------0-------0-------0------| 
B |----------------------------------| 
E |-5-------5-------5-------5--------| 


Chorus 

E |---------------------------------------------------------------------------| 
B |-----0-------0-------0-------0-------0-------0-------0-------0-------------| 
G#|-------0-------0-------0-------0-------5-------5-------5-------5-----------|x4 
E |---0-------0-------0-------0-------0-------0-------0-------0---------------| 
B |-5-------4-------2-------0-------------------------------------------------| 
E |---------------------------------5-------5-------5-------5-----------------| 


Intro 

E |-------0------0-------0-------0-------0-------0-------0-------0------------| 
B |-----4------4-------4-------4-------2-------2-------2-------2--------------| 
G#|---3------3-------3-------3-------1-------1-------1-------1----------------| 
E |-4------4-------4-------4-------2-------2-------2-------2------------------| 
B |---------------------------------------------------------------------------| 
E |---------------------------------------------------------------------------| 


E |-------0------0-------0-------0-------0-------0-0h2-----2------------------| 
B |-----4------4-------4-------4-------2-------2---2-------2------------------| 
G#|---3------3-------3-------3-------1-------1-----1-------1------------------| 
E |-4------4-------4-------4--------------------------------------------------| 
B |--------------------------------0-------0-------0--------------------------| 
E |---------------------------------------------------------------------------| 

From now on strumming !!! Just listen to the strumming pattern in the video.  


"There it is, right on the floor" 

E |-0------------------------------0------------------------------------------| 
B |-x------------------------------2------------------------------------------| 
G#|-3------------------------------1------------------------------------------| 
E |-4------------------------------0------------------------------------------| 
B |-0------------------------------2------------------------------------------| 
E |-0------------------------------2------------------------------------------| 

"It's like I've travelled miles from shore 
If I tell you how, will you share the cure? 
And tell me you've been here before" 
E |-0-0----------------------------0------------------------------------------| 
B |-0-0----------------------------2------------------------------------------| 
G#|-1/3----------------------------1------------------------------------------| x3 
E |-2/4----------------------------0------------------------------------------| 
B |-0-0----------------------------2------------------------------------------| 
E |-0-0----------------------------2------------------------------------------| 


Pre-Chorus 

"Tell me that you've seen this place" 
E |-0-------x----------------------0------------------------------------------| 
B |-9-------x----------------------2------------------------------------------| 
G#|-8-------x----------------------1------------------------------------------| 
E |-0-------x----------------------0------------------------------------------| 
B |-9-------x----------------------2------------------------------------------| 
E |-9-------x----------------------2------------------------------------------| 

"And that I don't have to be brave" 
E |-0-------x----------------------0---------------0--------------------------| 
B |-9-------x----------------------2---------------0--------------------------| 
G#|-8-------x----------------------1---------------3--------------------------| 
E |-0-------x----------------------0---------------0--------------------------| 
B |-9-------x----------------------2---------------5--------------------------| 
E |-9-------x----------------------2---------------4--------------------------| 

"Please just say" 

E |-0--------------------------------| 
B |-0--------------------------------| 
G#|-5--------------------------------| 
E |-0--------------------------------| 
B |-5--------------------------------| 
E |-5--------------------------------| 


Chorus 

E |-0-------0-------0-------0-------0-----------------------------------------| 
B |-0-------0-------0-------0-------0-----------------------------------------| 
G#|-3-------0-------0-------0-------5-----------------------------------------|x4 
E |-0-------0-------0-------0-------0-----------------------------------------| 
B |-5-------4-------2-------0-------5-----------------------------------------| 
E |-0-------0-------0-------0-------5-----------------------------------------| 


Still trying to figure out the Outro... 



************************************ 

| h  Hammer-on 
| x  Dead note 
| /  Slide up 


************************************ 
		  

auto scroll beats size up size down change color hide chords drawings
tab show chords e-chords YouTube Clip e-chords hide all tabs e-chords go to top tab

share