Rosa de Saron

home > Rosa de Saron

Estar com você Tab

Rosa de Saron

Difficulty: IntermediateIntermediate

by jean+guita

tuner correct add songbook print version text version save to e-mail
chordsukulelecavacokeyboardtabbassdrumsharmonicsflute Guitar Pro
chords

Estar com você

  		|------------------|-------------------------------| 
|------------------|---------------------------5/7-| 
|-4-0---4/5-4-3h4--|-4-0---4/5-5/7-7-5-4h5-4-5-6/7-| 
|-----0------------|-----0-------------------------| 
|------------------|-------------------------------| 
|------------------|-------------------------------| 
 
 
|------------------| 
|------------------| 
|------------------| 
|------------------| 
|-5h7-5------------| 
|-------7-5-3------| 
 
Autor: Jean Paulo ([email protected]) 
**O fim da segunda parte não ta igualzinho na música, 
e a terceira parte é uma improvisação..* 
Mas quebra o galho.... quem conseguir tirar inteira, 
manda um e mail.... vlw! 

	  

Search Paypal
auto scroll beats size up size down change color hide chords drawings
tab show chords e-chords YouTube Clip e-chords hide all tabs e-chords go to top tab