Ron Pope

Silly Notes And Gypsy Clothes

Ron Pope

tabs

by  SABRJOAO

save to print version add songbook text version e-mail correct tuner
chordsukulelecavacokeyboardtabbassdrumsharmonicaflute Guitar Pro
close

there isn't a video lesson for this song

chords

Silly Notes And Gypsy Clothes

	  		 

e|---------------| 
B|---------------| 
G|-----0-0-0-----| 
D|-----0-0-0-----| 
A|---------------| 
E|---------------| 


Intro: 

e|----------------------------------------------------------------------| 
B|----------------------------------------------------------------------| 
G|----------------------------------------------------------------------| X2 
D|----*-0-2-0-*---*-0-2-0--------*------*-0-2-*-0-----------------------| 
A|--3-*-------*-3-*---------2----*--0-2-*-----*----2--------------------| 
E|-----------------------------3----------------------------------------| 

Verse 1: 

e|----------------------------------------------------------------------| 
B|----------------------------------------------------------------------| 
G|----------------------------------------------------------------------| 
D|----*-0-2-0-*---*-0-2-0--------*------*-0-2-*-0-----------------------| 
A|--3-*-------*-3-*---------2----*--0-2-*-----*----2--------------------| 
E|-----------------------------3----------------------------------------| 

e|----------------------------------------------------------------------| 
B|----------------------------------------------------------------------| 
G|----------------------------------------------4-2-0-------------------| 
D|----*-0-2-0-*---*-0-2-0--------*------*-0-2-*-------------------------| 
A|--3-*-------*-3-*---------2----*--0-2-*-----*-------------------------| 
E|-----------------------------3----------------------------------------| 

e|----------------------------------------------5-3-0-------------------| 
B|----------------------------------------------------------------------| 
G|----------------------------------------------------------------------| 
D|----*-0-2-0-*---*-0-2-0--------*------*-0-2-*-------------------------| 
A|--3-*-------*-3-*---------2----*--0-2-*-----*-------------------------| 
E|-----------------------------3----------------------------------------| 

e|----------------------------------------------------------------------| 
B|----------------------------------------------------------------------| 
G|----------------------------------------------4-2-0-------------------| 
D|----*-0-2-0-*---*-0-2-0--------*------*-0-2-*-------------------------| 
A|--3-*-------*-3-*---------2----*--0-2-*-----*-------------------------| 
E|-----------------------------3----------------------------------------| 

e|-----------------------------3----3----3-----3------------------------| 
B|-----------------------------3----3----3-----3------------------------| 
G|-----------------------------0----2----0-----0------------------------| 
D|----*-0-2-0-*---*-0-2-0------0----0----2-----2------------------------| 
A|--3-*-------*-3-*---------2--2----0----2---3-3------------------------| 
E|-----------------------------3----2----0------------------------------| 

Interlude: 

e|----2-----3-----2-----3~------3-----------------------------------------| 
B|----3-----3-----3-----3~--------3------*--------------------------------| 
G|----2-----0-----2-----0~---------------*--------------------------------| 
D|----0-----2-----0-----0~---------------*--------------------------------| 
A|----------3-----------2~---------------*--------------------------------| 
E|----------------------3~------------------------------------------------| 

Verse 2: Not much different, the third line is the only one that changes 

e|----------------------------------------------------------------------| 
B|----------------------------------------------------------------------| 
G|----------------------------------------------------------------------| 
D|----*-0-2-0-*---*-0-2-0--------*------*-0-2-*-0-----------------------| 
A|--3-*-------*-3-*---------2----*--0-2-*-----*----2--------------------| 
E|-----------------------------3----------------------------------------| 

e|----------------------------------------------------------------------| 
B|----------------------------------------------------------------------| 
G|----------------------------------------------4-2-0-------------------| 
D|----*-0-2-0-*---*-0-2-0--------*------*-0-2-*-------------------------| 
A|--3-*-------*-3-*---------2----*--0-2-*-----*-------------------------| 
E|-----------------------------3----------------------------------------| 

e|----------------------------------------------------------------------| 
B|-----------------------------------------------X---X-X-X-X------------| 
G|-----------------------------------------------X---X-X-X-X------------| 
D|----*-0-2-0-*---*-0-2-0--------*------*-0-2-*--X---X-X-X-X------------| 
A|--3-*-------*-3-*---------2----*--0-2-*-----*--X---X-X-X-X------------| 
E|-----------------------------3----------------------------------------| 

e|----------------------------------------------------------------------| 
B|----------------------------------------------------------------------| 
G|----------------------------------------------4-2-0-------------------| 
D|----*-0-2-0-*---*-0-2-0--------*------*-0-2-*-------------------------| 
A|--3-*-------*-3-*---------2----*--0-2-*-----*-------------------------| 
E|-----------------------------3----------------------------------------| 

e|-----------------------------3----3----3-----3------------------------| 
B|-----------------------------3----3----3-----3------------------------| 
G|-----------------------------0----2----0-----0------------------------| 
D|----*-0-2-0-*---*-0-2-0------0----0----2-----2------------------------| 
A|--3-*-------*-3-*---------2--2----0----2---3-3------------------------| 
E|-----------------------------3----2----0------------------------------| 

Hallelujah: 

e|----2-----3-----2-----3~----------------------------------------------| 
B|----3-----3-----3-----3~----------*-----------------------------------| 
G|----2-----0-----2-----0~----------*-----------------------------------| 
D|----0-----2-----0-----0~----------*-----------------------------------| 
A|----------3-----------2~----------*-----------------------------------| 
E|----------------------3~----------------------------------------------| 

Finish with: 

e|----------------------------------------------------------------------| 
B|----------------------------------------------------------------------| 
G|----------------------------------------------4-2-0-------------------| 
D|----*-0-2-0-*---*-0-2-0--------*------*-0-2-*--------2~---------------| 
A|--3-*-------*-3-*---------2----*--0-2-*-----*--------3~---------------| 
E|-----------------------------3----------------------------------------| 
		  

See also:

tabs Yellowcard - Way Away tabs Kelly Clarkson - Since u been gone tabs Cyndi Lauper - Time After Time tabs Michael Jackson - Billie Jean (Fingerstyle) tabs Jason Mraz - The Remedy tabs Black Eyed Peas - My humps
e-chords

Other versions:

tabs Ron Pope - Silly Notes And Gypsy Clothes
auto scroll beats size up size down change color hide chords drawings
tab show chords e-chords YouTube Clip e-chords hide all tabs e-chords go to top tab

share with facebook