Romeo Santos

Loco

Romeo Santos

tabs Intermediate intermediate

by  GUSTSILVA

save to print version add songbook text version e-mail correct tuner
chordsukulelecavacokeyboardtabbassdrumsharmonicaflute Guitar Pro
close

there isn't a video lesson for this song

chords

Loco

	  		Loco Enrique Iglesias ft. Romeo Santos 

h=hammer on (ligar hacia delante) 
p=pull of   (ligar hacia atras) 
/=slide     (deslizar hacia delante) 
=slide     (deslizar hacia atras) 
f= finger pick (puntear con dedos 1, 2 y 3) 

Intro Versión Original 

          E----------------------------------------------------            
          B--0-----1------0--------0-----1------0---------------            
          G----0------0--------------0------0------------------            
          D------0------0--------------0------0----------------            
          A----------------------------------------------------            
          E----------------------------------------------------            

Intro version Bachata 

          E--7-----8-------7-----7-------7-----8------7--------            
          B----8-------8-----8-----8-------8------8------------            
          G------7-------7-----7-----7-------7------7----------            
          D----------------------------------------------------            
          A----------------------------------------------------            
          E----------------------------------------------------            


Te pido de rodillas, Luna no te vallas 

          E-------------------------------------------------            
          B--0-----1------0----0-----1------0---------------            
          G----0------0----------0------0-------------------            
          D------0------0----------0------0-----------------            
          A-------------------------------------------------            
          E-------------------------------------------------            

Alumbrale la noche, a ese corazón 

          E---2-----3------2----2-----3------2----------------            
          B-----3------3----------3------3--------------------            
          G-------2------2----------2------2------------------            
          D---------------------------------------------------            
          A---------------------------------------------------            

Desilusionado 

          E---------0-0-----2-----3----------------------------------            
          B--------0----0-------0-----------------------------------            
          G-------0-------0---0-------------------------------------            
          D------2------------------------------------------------            
          A-----2-------------------------------------------------            
          E----0--------------------------------------------------            

Aveces maltratado 

          E-----------0----------------------------------------------            
          B----------1---1-----3------1------------------------------            
          G---------0------0--------0--------------------------------            
          D--------2---------2----2----------------------------------            
          A-------3--------------------------------------------------            
          E----------------------------------------------------            


No te perdonare,      si me dejas solo 

          E-------10------8-7--------------10------8-7---------------------            
          B-----8----8--------8----------8----8--------8-----------------            
          G---7--------7---------------7--------7----------------------            
          D----------------------------------------------------------            
          A---------------------------------------------------------            
          E--------------------------------------------------------            

Con los sentimientos    que pasan como el viento 

          E------3p2---3p2------------3p2---3p2-2--------------------------            
          B----3-----3-----3--------3-----3------------------------            
          G--2--------------------2-----------------------------            
          D---------------------------------------------------            
          A---------------------------------------------------            
          E---------------------------------------------------            


Y lo revuelven todo 


          E----------------f5-f5-f5-f7-f7-f7-8/108-----------------            
          B----------------f5-f5-f5-f7-f7-f7-8/108-----------------            
          G----------------f5-f5-f5-f7-f7-f7-9/119-----------------            
          D---------------------------------------------------            
          A---------------------------------------------------            
          E---------------------------------------------------            

Y me vuelven loco 


          E----------------f5-f5-f5-f7---8-----------------------------            
          B----------------f5-f5-f5-f7---8-----------------------------            
          G----------------f5-f5-f5-f7---9-----------------------------            
          D-------------------------------------------------------            
          A-------------------------------------------------------            
          E---------------------------------------------------            



Estribillo 


          Loco 

          E----------------------8h10p8-8h10p-----------------            
          B--------------------8-------------------------------            
          G------------------9---------------------------------            
          D----------------10----------------------------------            
          A---------------------------------------------------            
          E---------------------------------------------------            

Por besar tus labios 

          E--------------------------------------------------            
          B------------------10-8------10-8------------------            
          G----------------9---------9-----------------------            
          D---------------10--------10-----------------------            
          A---------------------------------------------------            
          E---------------------------------------------------            

Sin quede nada por dentro de mi diciéndotelo todo 

          E--------5-----5---5------5-----5---5---------------            
          B------7-----7----------7-----7---------------------            
          G----7-----7-----7----7-----7-----7-----------------            
          D---------------------------------------------------            
          A---------------------------------------------------            
          E---------------------------------------------------            

          E--------------------------------8h10p8-------------            
          B---------------------------------------------------            
          G------4-5-4------5-4--2h4p2p0----------------------            
          D----5----------5-----------------------------------            
          A---------------------------------------------------            
          E---------------------------------------------------            


Y yo 

          E--------12--15h17p15-----------------------------------------            
          B------13---------------------------------------------            
          G----12-----------------------------------------------            
          D---------------------------------------------------            
          A---------------------------------------------------            
          E---------------------------------------------------            

no te perdonare 

          E---------------------------------------------------            
          B------------------10-10-8-7-7/8-8------------------            
          G---------------------------------------------------            
          D---------------------------------------------------            
          A---------------------------------------------------            
          E---------------------------------------------------            


Si me dejas por dentro con este dolor no te perdonare 

          E------5-----5---5------5-----5---7-----------------------            
          B----7-----7----------7-----7---------------------------            
          G--7-----7-----7----7-----7-----7-------------------------            
          D---------------------------------------------------            
          A---------------------------------------------------            
          E---------------------------------------------------            

                         Si me vuelves loco 

          E---------------------------------------------------            
          B---------------------------------------------------            
          G------4-5/7-5-4h5p4----4-5/7-5--4h5p4--------------            
          D----5----------------5----------------5/7-7--------            
          A---------------------------------------------------            
          E---------------------------------------------------            

          E--10-------5-----7-------8-------7-----------------            
          B--10---------5-------5-------5------5--------------            
          G--11-----------5-------5-------5------5------------            
          D--12-----------------------------------------------            
          A---------------------------------------------------            
          E---------------------------------------------------            

          E---------------------------------7------7h8-7--7---------            
          B---8-----7------8-------7----------8-------------8-------            
          G-----9------9-------9------9---------7-------------7-----            
          D-------9------9-------9------9---------------------------            
          A---------------------------------------------------------            
          E---------------------------------------------------------            

Te pido de rodillas, una y mil perdones 

          E-----------3----------------3------------------------            
          B---------3-----3----------3----3-----------------------            
          G-------4---------5------4--------5---------------------            
          D-----5----------------5------------------------------            
          A---------------------------------------------------            
          E---------------------------------------------------            

Que al llegar la aurora, no me digas adios 

          E----------3-----------------3------------------------            
          B--------3-----3-----------3----3-----------------------            
          G------4---------5-------4--------5---------------------            
          D----5-----------------5------------------------------            
          A---------------------------------------------------            
          E---------------------------------------------------            

No dejes ir el llanto, de tantas canciones 

          E-------5-----------5---------------------------------            
          B---------7---8-------7--------------------------------            
          G-----7-----7---7--------------------------------------            
          D---7-------------7-----------------------------------            
          A---------------------------------------------------            
          E---------------------------------------------------            

De una luna rota,       como una guitarra 

          E---------------------------------------------------            
          B---------5/7-7-7-7-7-7-7-8-8-10-10-----------------            
          G---------------------------------------------------            
          D---------------------------------------------------            
          A---------------------------------------------------            
          E---------------------------------------------------            

Por tantas promesas, que se van volando 

          E---------------------------------------------------            
          B---------------------7-7-8-10/12-10-8--------------            
          G---------------------------------------------------            
          D---------------------------------------------------            
          A---------------------------------------------------            
          E---------------------------------------------------            

Que me vuelven loco, ay ay ay ay ay ay ay ay ay ay 

          E---------------------------------------------------            
          B------------888888-----10-8-----10-8---------------            
          G---------------------9--------9--------------------            
          D--------------------10-------10--------------------            
          A---------------------------------------------------            
          E---------------------------------------------------            

Estribillo 

solo 


          E---------------------------------------------------            
          B---------------------------------------------------            
          G--/7-7-7-7-7---9-9-11-11---------------------------            
          D---------------------------------------------------            
          A---------------------------------------------------            
          E---------------------------------------------------            

  X2 
          E-------------------------------|----------------------------------------------            
          B--7h8-7-7-7-7-7h8-7-7-7-7h8-7--|--7h8-7-7-7-7-7h8-7-7-7-8/10-10-8-7-7/8-------            
          G-------------------------------|----------------------------------------------            
          D-------------------------------|----------------------------------------------            
          A-------------------------------|----------------------------------------------            
          E-------------------------------|----------------------------------------------            

          E--------------------------7-7h8---5-5-5h7-5/7-----------            
          B--8-8h10-7-7-7h8-7/8------------------------------------            
          G--------------------------------------------------------            
          D--------------------------------------------------------            
          A--------------------------------------------------------            
          E--------------------------------------------------------            

          E---3-3-5h7-3-3-3h5--2h3-2h3------------------------            
          B---------------------------------------------------            
          G---------------------------------------------------            
          D---------------------------------------------------            
          A---------------------------------------------------            
          E---------------------------------------------------            

Y es que estoy loco 

          E------8-10-10/12-8/108---------------------------            
          B----8---------------------------------------------            
          G--9-----------------------------------------------            
          D--------------------------------------------------            
          A--------------------------------------------------            
          E--------------------------------------------------            

Por besar tus labios, 
          E---------------------------------------------------            
          B--1-1-1-1-3-3-3-3-5-5-5-5-7-7-7-7-8-8-8-8----------            
          G---------------------------------------------------            
          D---------------------------------------------------            
          A---------------------------------------------------            
          E---------------------------------------------------            

Sin quede nada por dentro de mi diciéndotelo todo 

          E-------------------------------------------------------------------------            
          B-10-10-10-10-10-10-10-10-8-8-8-8-7-7-7-7-5-5-5-5-3-3-3-3-1-1----0--------            
          G-------------------------------------------------------------------------            
          D-------------------------------------------------------------------------            
          A-------------------------------------------------------------------------            
          E-------------------------------------------------------------------------            


          E---7-7-----8-8----10-10----22-22-22-22-----------            
          B-8------10-----12--------------------------------            
          G-------------------------------------------------            
          D-------------------------------------------------            
          A-------------------------------------------------            
          E-------------------------------------------------            

 y yo 
          E---------------------------------------------------            
          B--12h13-12-12-12h13-12-12-12h13--------------------            
          G---------------------------------------------------            
          D---------------------------------------------------            
          A---------------------------------------------------            
          E---------------------------------------------------            

No te perdonare 

          E--------------22-22-22-22-20-20-20-20-19-19-19-19-17-17-17-17----            
          B-----------------------------------------------------------------            
          G-----------------------------------------------------------------            
          D-----------------------------------------------------------------            
          A-----------------------------------------------------------------            
          E-----------------------------------------------------------------            

Si me dejas por dentro con este dolor, no te perdonare 

E--15-15-15-15-15-15-14-14-14-14-12-12-12-12-10-10-10-10-8-8-8-8-7-7-- 
          B---------------------------------------------------------------------            
          G---------------------------------------------------------------------            
          D---------------------------------------------------------------------            
          A---------------------------------------------------------------------            
          E---------------------------------------------------------------------            

          E--------------------5-7------------------------------            
          B--------------5-7-8-----8------------------------------            
          G--------4-5-7-----------------------------------------            
          D----5-7----------------------------------------------            
          A---------------------------------------------------            
          E---------------------------------------------------            

Si me vuelves loco 

          E---------------------5-------5-----------------------            
          B-----------------------7-------7---------------------            
          G-------------------7-------7-------------------------            
          D---------------------------------------------------            
          A---------------------------------------------------            
          E---------------------------------------------------            

Te pido de rodillas, Luna no te vallas 

          E-------------------------------------------------            
          B--0-----1------0----0-----1-------0-------------            
          G----0--------0--------0---------0----------------            
          D------0----0------------0-----0-----------------            
          A-------------------------------------------------            
          E-------------------------------------------------            

          E---------------------------------------------------            
          B---------------------------------------------------            
          G---------------------------------------------------            
          D---------------------------------------------------            
          A---------------------------------------------------            
          E---------------------------------------------------            
		  

See also:

tabs Eminem - Without me tabs Dmx - Ruff Ryders Anthem tabs Eamon - Fuck it tabs Ja Rule - Mesmerize tabs Usher - Seduction tabs Gwen Stefani - What You Waiting For
e-chords

Other versions:

tabs Coal Chamber - Loco tabs Andrés Calamaro - Loco tabs Romeo Santos - Loco tabs 3 Vallejo - Loco (tu forma de ser) tabs Coal Chamber - Loco Album Version tabs Coal Chamber - Loco Cor Ver
auto scroll beats size up size down change color hide chords drawings
tab show chords e-chords YouTube Clip e-chords hide all tabs e-chords go to top tab

share