Robert Wyatt

Sea Song

Robert Wyatt

tabs Beginner beginner

save to print version add songbook text version e-mail correct tuner
chordsukulelecavacokeyboardtabbassdrumsharmonicaflute Guitar Pro
close

there isn't a video lesson for this song

chords

Sea Song

	  		A música foi originalmente gravada com acompanhamento de teclados - 
A parte instrumental entre o primeiro e o segundo verso não está transcrita aqui 
(tocada no acorde E7/5-), nem a parte instrumental que dá 
continuidade ao segundo verso que encerra a música (tocada por volta do acorde de D) 
 
O vocal começa depois de E, e o E do segundo traste da quarta corda (por exemplo), 
pode ser tocado como guia para o vocal, já que a melodia não é tão fácil a partir da introdução. 
 
Notas seguradas são representadas por símbolos de igual (=) (para indicar que a nota a seguir 
na mesma corda não é tocada novamente) - assim como na gravação, 
mas na guitarra/violão, pode haver necessidade de deixá-las soar um pouco mais. 
 
Acordes 
 
Sequência de cordas: 654321 - acordes em ordem de aparição |- 2 versões 
de Cm6 e Ebmaj7 são usadas|- nem todas as notas são necessárias 
 
 
Tom - Am (pelo menos para as partes vocais) 
 
Tempo|- 2/2  (lento e melancólico) 
 
 
   Eb                  F                   Bb 
1 -|---|---|---|---|---|---|---|---|---|---|---|---|---|---| 
E|-3---------------|-------------------|-------------------| 
B|-4---------------|-------------4-3-1-|---3---------------| 
G|-------------3---|---2---------------|---3---------------| 
D|-------------5---|---3---------------|---------------3---| 
A|-6---------------|-------------------|---1---------------| 
E|-----------------|---1---------------|-------------------| 
   {intro} 
 
   Eb                  Cm      Cm7         Cm6 
4 -|---|---|---|---|---|---|---|---|---|---|---|---|---|---| 
E|-----------------|-------------------|-------------------| 
B|-----------3-----|-------------------|-------------------| 
G|-------------5-3-|---5-------3-------|-------------------| 
D|-5---------------|---5-------5-------|---7===============| 
A|-6---------------|---3---------------|---6===============| 
E|-----------------|-----------6-------|---5===============| 
 
                       D 
7 -|---|---|---|---|---|---|---|---|---|---|---|---|---|---| 
E|-----------------|-------------------|-------------------| 
B|-----------------|---3===============|===3---------------| 
G|-----------------|---2===============|===2---------------| 
D|-7---------------|---0===============|===0---------------| 
A|-6---------------|-------------------|-------------------| 
E|-5---------------|-------------------|-------------------| 
 
   E7-5 
10-|---|---|---|---|---|---|---|---|---|---|---|---|---|---| 
E|-0===============|===0===============|===0===============| 
B|-3===============|===3===============|===3===============| 
G|-3===============|===3===============|===3===============| 
D|-----------------|-------------------|-------------------| 
A|-----------------|-------------------|-------------------| 
E|-0===============|===0===============|===0===============| 
                                                1. You look 
                                                   E   E 
 
                       F#m                 F6  
13-|---|---|---|---|---|---|---|---|---|---|---|---|---|---| 
E|-0---------------|-------------------|-------------------| 
B|-3---------------|---------------5---|---3-------1---0---| 
G|-3---------------|---2---------------|---2---------------| 
D|-----------------|---4---------------|-------------------| 
A|-----------------|-------------------|-------------------| 
E|-0---------------|---2---------------|---1---------------| 
   different every     time        you     come    from the 
   C         B A B     A           E       D       C    B 
 
   Am                  Em                  F#m 
16-|---|---|---|---|---|---|---|---|---|---|---|---|---|---| 
E|-----------------|-------------------|-------------------| 
B|---------0---1---|-------------------|---------------5---| 
G|-2---------------|---0---------------|---2-------2-------| 
D|-2---------------|---2-------2---2---|---4-----4---------| 
A|-0---------------|-------------------|-------------------| 
E|-----------------|---0---------------|---2---------------| 
   foam     crested    brine,  It's your   skin    shining 
   A        B   C      B       E    E      A       A   E 
 
   F6                  Am                  Em 
18-|---|---|---|---|---|---|---|---|---|---|---|---|---|---| 
E|-----------------|-------------------|-------------------| 
B|-3---1---0---1---|-------------------|-------------------| 
G|-2---------------|---2---------------|---------------1---| 
D|-----------------|---2---------------|---2-------4-------| 
A|-----------------|---0---------------|---2---------------| 
E|-1---------------|-------------------|---0---------------| 
   softly  in  the     moon----------------light,  Partly 
   D   C   B   C       A                   E       F#  G# 
 
   F#m                 F6                  Am 
21-|---|---|---|---|---|---|---|---|---|---|---|---|---|---| 
E|-----------------|-------------------|-------------------| 
B|-------------5---|---3---1---0---1---|-----------0---1---| 
G|-2-------2-------|---2---------------|---2---------------| 
D|-4---------------|-------------------|---2---------------| 
A|-----------------|-------------------|---0---------------| 
E|-2---------------|---1---------------|-------------------| 
   fish     partly     porpoise partly      ba------by  sperm 
   A        A  E       D  C     B   C       A       B   C   
 
   Em                  F#m                 F6           
24-|---|---|---|---|---|---|---|---|---|---|---|---|---|---| 
E|-----------------|-------------------|-------------------| 
B|-----------------|---------------5---|---3-------1---0---| 
G|-0---------------|---2-------2-------|---2---------------| 
D|-2-------2---2---|---4---------------|-------------------| 
A|-----------------|-------------------|-------------------| 
E|-0---------------|---2---------------|---1---------------| 
   whale   Am  I       yours,  are you     mi------ine to  
   G       E   E       A       A   E       D       C   B 
 
   Am      Em          F#m                 F6 
27-|---|---|---|---|---|---|---|---|---|---|---|---|---|---| 
E|-----------------|-------------------|-------------------| 
B|-----------------|---------------5---|---3-------1---0---| 
G|-2---------------|---2-------2-------|---2---------------| 
D|-2-------2-------|---4---------------|-------------------| 
A|-0-------2-------|-------------------|-------------------| 
E|---------0-------|---2---------------|---1---------------| 
   play    with?       Jok-----ing a-------part    when you're 
   A       E           A       A   E       D       C    B 
 
   Am                  Em                  F#m 
30-|---|---|---|---|---|---|---|---|---|---|---|---|---|---| 
E|-----------------|-------------------|-------------------| 
B|---------0---1---|---1---0-----------|---------------5---| 
G|-2---------------|---0-------2---0---|---2-------2-------| 
D|-2---------------|-------------------|---4-----4---------| 
A|-0---------------|-------------------|-------------------| 
E|-----------------|---0---------------|---2---------------| 
   drunk you're ter----riffic, when you're drunk I love you 
   A     B      C      C  B    A    G      A     E A    E 
 
   F6                  Am                  Em7 
33-|---|---|---|---|---|---|---|---|---|---|---|---|---|---| 
E|-----------------|-------------------|-----------0---1---| 
B|-3---1---0---1---|-----------0---1---|---3---------------| 
G|-2---------------|---2-----2---------|---0---------------| 
D|-----------------|---2---------------|-------------------| 
A|-----------------|---0---------------|-------------------| 
E|-1---------------|-------------------|---0---------------| 
   most-ly late at  night, You're quite all right. But I 
   D    C  B    G   A      A      B     C   D      E   F 
 
   Ebmaj7              Cm6                 Bbmaj7 
36-|---|---|---|---|---|---|---|---|---|---|---|---|---|---| 
E|---------6-------|-----------3-------|-----------1-------| 
B|-------8---8-----|---------4---4-----|---------3---3-----| 
G|-----7-------7---|-------5-------5---|-------2-------2---| 
D|---8-----------8-|-----5-----------5-|-----3-----------3-| 
A|-6---------------|---0---------------|---1---------------| 
E|-----------------|-------------------|-------------------| 
   can't   un--der-----stand the different you     in  the 
   G       G   G       G     F   Eb  F G   F       F   F 
 
   Ebmaj7              Cm      Cm7         Cm6 
39-|---|---|---|---|---|---|---|---|---|---|---|---|---|---| 
E|-----------3-----|-------------------|-------------------| 
B|---------3---3---|---4-------3-------|---------3-4---4---| 
G|-------3-------3-|---5-------3-------|---5-----5-5---5---| 
D|-----5-----------|---5-------5-------|---5---------------| 
A|---6-------------|---3---------------|---0---------------| 
E|-3---------------|-----------6-------|-------------------| 
   morning when it's  time     to          play  at being  
   F   Eb  D    Bb    C        Bb          A     C  D Eb 
 
   Cm6                 D 
42-|---|---|---|---|---|---|---|---|---|---|---|---|---|---| 
E|-----------------|-------------------|---------------2---| 
B|-6---4---3-4-----|---3===============|===3---------------| 
G|-5-------5-------|---2===============|===2---------------| 
D|-----------------|---0===============|===0---------------| 
A|-0---------------|-------------------|-------------------| 
E|-----------------|-------------------|-------------------| 
   hu-mans for a       while                           we 
   F  Eb   D   C       D                               F# 
 
   E7-5                E7-5 
45-|---|---|---|---|---|---|---|---|---|---|---|---|---|---| 
E|-0-------0---0---|-------------------|---0---------------| 
B|-3-------3---3---|-------------------|---3---------------| 
G|-3-------3---3---|-------------------|---3---------------| 
D|---------2-------|-------------------|-------------------| 
A|-------1---------|-------------------|-------------------| 
E|-0---------------|-------------------|---0---------------| 
   smile         {extended keyboard break}      2. You'll be 
   E                                               E      E 
 
                       F#m                 F6  
48-|---|---|---|---|---|---|---|---|---|---|---|---|---|---| 
E|-0---------------|-------------------|-------------------| 
B|-3---------------|---------------5---|---3-------1---0---| 
G|-3---------------|---2---------------|---2---------------| 
D|-----------------|---4---------------|-------------------| 
A|-----------------|-------------------|-------------------| 
E|-0---------------|---2---------------|---1---------------| 
   different i-n the   spring      I       know    you're a 
   C         B A B     A           E       D       C    B 
 
   Am                  Em                  F#m 
51-|---|---|---|---|---|---|---|---|---|---|---|---|---|---| 
E|-----------------|-------------------|-------------------| 
B|---------0---1---|---0---------------|---------------5---| 
G|-2---------------|---0-------2---0---|---2-------2-------| 
D|-2---------------|-------------------|---4-----4---------| 
A|-0---------------|-------------------|-------------------| 
E|-----------------|---0---------------|---2---------------| 
   sea-----son-al      beast,  Like the    star---fish that 
   A       B   C       B       A    G      A       A   E 
 
   F6                  Am                  Em 
54-|---|---|---|---|---|---|---|---|---|---|---|---|---|---| 
E|-----------------|-------------------|-------------------| 
B|-3-1-----0---1---|-------------------|-------------------| 
G|-2---------------|---2-------0-------|---------------1---| 
D|-----------------|---2-----------3---|---2-------4-------| 
A|-----------------|---0---------------|---2---------------| 
E|-1---------------|-------------------|---0---------------| 
  drifted  with the    tide   with the     tide,   So  un-- 
   D C     B   C       A       G   F       E       F#  G# 
 
   F#m                 F6                  Am 
57-|---|---|---|---|---|---|---|---|---|---|---|---|---|---| 
E|-----------------|-------------------|-------------------| 
B|-------------5---|---3-1---------0---|-----------0---1---| 
G|-2---------------|---2---------------|---2-----2---------| 
D|-4---------------|-------------------|---2---------------| 
A|-----------------|-------------------|---0---------------| 
E|-2---------------|---1---------------|-------------------| 
  -til         your blood runs     to     meet the next full 
   A           E       D C         B       A     A B   C   
 
   Em                  F#m                 F6           
60-|---|---|---|---|---|---|---|---|---|---|---|---|---|---| 
E|-----------------|-------------------|-------------------| 
B|-0-----------0---|---------------5---|---3---1---0---1---| 
G|-0---------------|---2-------2-------|---2---------------| 
D|-----------------|---4---4-----------|-------------------| 
A|-----------------|-------------------|-------------------| 
E|-0---------------|---2---------------|---1---------------| 
   moon,       Your    mad-ness fits in    nicely  with my 
   B           B       A   F#   A    E     D   C   B   C 
 
   Am                  Em                  F#m 
63-|---|---|---|---|---|---|---|---|---|---|---|---|---|---| 
E|-----------------|-------------------|-------------------| 
B|-----------------|-------------------|---------------5---| 
G|-2-------0-------|---------------0---|---2-------2-------| 
D|-2-----------0---|---2---------------|---4-----4---------| 
A|-0---------------|---2---------------|-------------------| 
E|-----------------|---0---------------|---2---------------| 
   own,    with my     own,        Your    lun---a-cy  fits 
   A       G    D      E           G       A     F# A   E 
 
   F6                  Am                  F 
66-|---|---|---|---|---|---|---|---|---|---|---|---|---|---| 
E|-----------------|-------------------|-------------------| 
B|-3---1---0---1---|-------------------|-------1---0-1-----| 
G|-2---------------|---2---------------|-------------------| 
D|-----------------|---2---------------|---3---------------| 
A|-----------------|---0---------------|---3---------------| 
E|-1---------------|-------------------|---1---------------| 
   neatly  with my     own,                    My  ve-ry  
   D   C   B    C      A 
 
   Am                  F                   Am 
69-|---|---|---|---|---|---|---|---|---|---|---|---|---|---| 
E|-----------------|-------------------|-------------------| 
B|-----------------|-------------------|-------------------| 
G|-2---------------|-------------------|---2---------------| 
D|-2---------------|---3---------------|---2---------------| 
A|-0---------------|---3---------------|---0---------------| 
E|-----------------|---1---------------|-------------------| 
   Own 
   A 
 
   F                   Am                  F 
72-|---|---|---|---|---|---|---|---|---|---|---|---|---|---| 
E|-----------------|-------------------|-------------------| 
B|-----------------|-------------------|-------------------| 
G|-----------------|---2---------------|-------------------| 
D|-3---------------|---2---------------|---3---------------| 
A|-3---------------|---0---------------|---3---------------| 
E|-1---------------|-------------------|---1---------------| 
 
   Am                  F                   Am 
75-|---|---|---|---|---|---|---|---|---|---|---|---|---|---| 
E|-----------------|-------------------|-------------------| 
B|-----------------|-------------------|-------------------| 
G|-2---------------|-------------------|---2---------------| 
D|-2---------------|---3---------------|---2---------------| 
A|-0---------------|---3---------------|---0---------------| 
E|-----------------|---1---------------|-------------------| 
 
   F                   Am                  F 
78-|---|---|---|---|---|---|---|---|---|---|---|---|---|---| 
E|-----------------|-------------------|-------------------| 
B|-----------------|-------------------|-------------------| 
G|-----------------|---2---------------|-------1---0-------| 
D|-3---------------|---2---------------|---3---------3-----| 
A|-3---------------|---0---------------|---3---------------| 
E|-1---------------|-------------------|---1---------------| 
                                             We're not a--- 
                                               Ab  G F 
   D 
81-|---|---|---|---|---|---|---|---|---|| 
E|-----------------|-------------------|| 
B|-----------------|-------------------|| 
G|-2---------------|-------------------|| 
D|-0---------------|-------------------|| 
A|-----------------|-------------------|| 
E|-----------------|-------------------|| 
  -lone       {instrumental} 
   A 

		  

Full key step upFull key step up
Half key step upHalf key step up
Half key step downHalf key step down
Full key step downFull key step down
hide glossary

See also:

tabs Jack Johnson - Good People tabs Rage Against The Machine - Killing In The Name (ver. 2) tabs Blue Oyster Cult - Dont Fear The Reaper tabs R.E.M. - Losing my religion tabs Smashing Pumpkins - Today tabs Foo Fighters - Learn to Fly (acoustic version)
e-chords

Other versions:

tabs Robert Wyatt - Sea Song
auto scroll beats size up size down change color hide chords drawings
tab show chords e-chords YouTube Clip e-chords hide all tabs e-chords go to top tab

share