Robert Miles

Children

Robert Miles

tabs

by  ANDRSOUZA

save to print version add songbook text version e-mail correct tuner
chordsukulelecavacokeyboardtabbassdrumsharmonicaflute Guitar Pro
close

there isn't a video lesson for this song

chords

Children

Written by Roberto Concina

	  		Intro 


E|--13~---(13)--(13)--(13)--(13)----------| 
B|----------------------------------------| 
G|----------------------------------------| 
D|----------------------------------------| 
A|----------------------------------------| 
E|----------------------------------------| 

E|--16------------------------------------| 
B|-----20------(20)--(20)--(20)--(20)-----| 
G|--------20------(20)--(20)--(20)--(20)--| 
D|----------------------------------------| 
A|----------------------------------------| 
E|----------------------------------------| 

E|--16------------------------------------| 
B|-----20------(20)--(20)--(20)--(20)-----| 
G|--------17------(17)--(17)--(17)--(17)--| 
D|----------------------------------------| 
A|----------------------------------------| 
E|----------------------------------------| 

E|--16------------------------------------| 
B|-----20------(20)--(20)--(20)--(20)-----| 
G|----------------------------------------| 
D|--------18------(18)--(18)--(18)--(18)--| 
A|----------------------------------------| 
E|----------------------------------------| 

E|--13~---(13)--(13)--(13)--(13)----------| 
B|----------------------------------------| 
G|----------------------------------------| 
D|----------------------------------------| 
A|----------------------------------------| 
E|----------------------------------------|

E|--16------------------------------------| 
B|-----20------(20)--(20)--(20)--(20)-----| 
G|--------20------(20)--(20)--(20)--(20)--| 
D|----------------------------------------| 
A|----------------------------------------| 
E|----------------------------------------| 

E|--16------------------------------------| 
B|-----20------(20)--(20)--(20)--(20)-----| 
G|--------17------(17)--(17)--(17)--(17)--| 
D|----------------------------------------| 
A|----------------------------------------| 
E|----------------------------------------|

E|--16------------------------------------| 
B|-----20------(20)--(20)--(20)--(20)-----| 
G|----------------------------------------| 
D|--------18------(18)--(18)--(18)--(18)--| 
A|----------------------------------------| 
E|----------------------------------------|

Tab - Primeira Parte 

E|----------------------------------------| 
B|--------------18~-----------------------| 
G|-----------17---------------------------| 
D|--15-17-18------------------------------| 
A|----------------------------------------| 
E|----------------------------------------| 

E|---16--------|--16--------|--16---------| 
B|------20-----|-----20-----|-----20------| 
G|---------20--|--------17--|-------------| 
D|-------------|------------|--------18---| 
A|-------------|------------|-------------| 
E|-------------|------------|-------------| 

E|--13~---(13)--(13)--(13)--(13)----------| 
B|----------------------------------------| 
G|----------------------------------------| 
D|----------------------------------------| 
A|----------------------------------------| 
E|----------------------------------------| 

E|--16--------|--16--------|--16----------| 
B|-----20-----|-----20-----|-----20-------| 
G|--------20--|--------17--|--------------| 
D|------------|------------|--------18----| 
A|------------|------------|--------------| 
E|------------|------------|--------------| 

E|----------------------------------------| 
B|--------------18~-----------------------| 
G|-----------17---------------------------| 
D|--15-17-18------------------------------| 
A|----------------------------------------| 
E|----------------------------------------| 

E|--16--------|--16--------|--16----------| 
B|-----20-----|-----20-----|-----20-------| 
G|--------20--|--------17--|--------------| 
D|------------|------------|--------18----| 
A|------------|------------|--------------| 
E|------------|------------|--------------| 

E|--13~--16-------------------------------| 
B|----------20----------------------------| 
G|-------------20-------------------------| 
D|----------------------------------------| 
A|----------------------------------------| 
E|----------------------------------------| 

E|----------------------------------------| 
B|----------------------------------------| 
G|--18-17-18---17-------------------17----| 
D|----------------18---(17)-17---18----15-| 
A|----------------------------------------| 
E|----------------------------------------| 

Tab - Segunda Parte 

E|----------------------------------------| 
B|----------------------------------------| 
G|--13-----13-----13-----13---------------| 
D|-----15-----15-----15-----15------------| 
A|----------------------------------------| 
E|----------------------------------------| 

E|----------------------------------------| 
B|----------------------------------------| 
G|--15-----15-----15-----15---------------| 
D|-----17-----17-----17-----17------------| 
A|----------------------------------------| 
E|----------------------------------------| 

E|----------------------------------------| 
B|----------------------------------------| 
G|--17-----17-----17-----17---------------| 
D|-----18-----18-----18-----18------------| 
A|----------------------------------------| 
E|----------------------------------------| 

E|----------------------------------------| 
B|----------------------------------------| 
G|--15-----15-----15-----15---------------| 
D|-----17-----17-----17-----17------------| 
A|----------------------------------------| 
E|----------------------------------------| 

E|----------------------------------------| 
B|----------------------------------------| 
G|--13-----13-----13-----13---------------| 
D|-----15-----15-----15-----15------------| 
A|----------------------------------------| 
E|----------------------------------------| 

E|----------------------------------------| 
B|----------------------------------------| 
G|--15-----15-----15-----15---------------| 
D|-----17-----17-----17-----17------------| 
A|----------------------------------------| 
E|----------------------------------------| 

E|----------------------------------------| 
B|----------------------------------------| 
G|--17-----17-----17-----17---------------| 
D|-----18-----18-----18-----18------------| 
A|----------------------------------------| 
E|----------------------------------------| 

E|----------------------------------------| 
B|----------------------------------------| 
G|--20-----20-----20-----20---------------| 
D|-----17-----17-----17-----17------------| 
A|----------------------------------------| 
E|----------------------------------------| 

Tab - Terceira Parte 

E|----------------------------------------| 
B|--------------18~-----------------------| 
G|-----------17---------------------------| 
D|--15-17-18------------------------------| 
A|----------------------------------------| 
E|----------------------------------------| 

E|--16--------|--16--------|--16----------| 
B|-----20-----|-----20-----|-----20-------| 
G|--------20--|--------17--|--------------| 
D|------------|------------|--------18----| 
A|------------|------------|--------------| 
E|------------|------------|--------------| 

E|------------------------------16--------| 
B|--------------18~----------------20-----| 
G|-----------17-----------------------20--| 
D|--15-17-18------------------------------| 
A|----------------------------------------| 
E|----------------------------------------| 

E|----------------------------------------| 
B|----------------------------------------| 
G|--18-17-18---17-------------------17----| 
D|----------------18---(17)-17---18----15-| 
A|----------------------------------------| 
E|----------------------------------------| 

E|----------------------------------------| 
B|--------------18~-----------------------| 
G|-----------17---------------------------| 
D|--15-17-18------------------------------| 
A|----------------------------------------| 
E|----------------------------------------| 

E|--16--------|--16--------|--16----------| 
B|-----20-----|-----20-----|-----20-------| 
G|--------20--|--------17--|--------------| 
D|------------|------------|--------18----| 
A|------------|------------|--------------| 
E|------------|------------|--------------| 

E|------------------------------16--------| 
B|--------------18~----------------20-----| 
G|-----------17-----------------------20--| 
D|--15-17-18------------------------------| 
A|----------------------------------------| 
E|----------------------------------------| 

E|----------------------------------------| 
B|----------------------------------------| 
G|--18-17-18---17-------------------17----| 
D|----------------18---(17)-17---18----15-| 
A|----------------------------------------| 
E|----------------------------------------| 

E|----------------------------------------| 
B|--------------18~-----------------------| 
G|-----------17---------------------------| 
D|--15-17-18------------------------------| 
A|----------------------------------------| 
E|----------------------------------------| 

E|--16--------|--16--------|--16----------| 
B|-----20-----|-----20-----|-----20-------| 
G|--------20--|--------17--|--------------| 
D|------------|------------|--------18----| 
A|------------|------------|--------------| 
E|------------|------------|--------------| 

E|------------------------------16--------| 
B|--------------18~----------------20-----| 
G|-----------17-----------------------20--| 
D|--15-17-18------------------------------| 
A|----------------------------------------| 
E|----------------------------------------| 

E|----------------------------------------| 
B|----------------------------------------| 
G|--18-17-18---17-------------------17----| 
D|----------------18---(17)-17---18----15-| 
A|----------------------------------------| 
E|----------------------------------------| 

Tab - Solo 

E|----------------------------------------| 
B|--------------18----16-----14-----14-13-| 
G|-----------17----------15-----13--------| 
D|--15-17-18------------------------------| 
A|----------------------------------------| 
E|----------------------------------------| 

E|----------------------------------------| 
B|--------------18----16-----14-13--------| 
G|-----------17----------15---------13----| 
D|--15-17-18---------------------------15-| 
A|----------------------------------------| 
E|----------------------------------------| 

E|----------------------------------------| 
B|--------------18----16-----14-----14-13-| 
G|-----------17----------15-----13--------| 
D|--15-17-18------------------------------| 
A|----------------------------------------| 
E|----------------------------------------| 

E|----------------------------------------| 
B|--------------18----16-----14-13--------| 
G|-----------17----------15---------13----| 
D|--15-17-18---------------------------15-| 
A|----------------------------------------| 
E|----------------------------------------| 

E|----------------------------------------| 
B|--------------18----16-----14-----14-13-| 
G|-----------17----------15-----13--------| 
D|--15-17-18------------------------------| 
A|----------------------------------------| 
E|----------------------------------------| 

E|----------------------------------------| 
B|--------------18----16-----14-13--------| 
G|-----------17----------15---------13----| 
D|--15-17-18---------------------------15-| 
A|----------------------------------------| 
E|----------------------------------------| 

E|----------------------------------------| 
B|----------------------------------------| 
G|----------------------------------------| 
D|-------------------10------10-13--------| 
A|--10-11-13---11-13------13--------------| 
E|----------------------------------------| 

E|---------------------------11-15~~------| 
B|---------------------11-13--------------| 
G|--------10-----10-13--------------------| 
D|--10-13-----13--------------------------| 
A|----------------------------------------| 
E|----------------------------------------| 

Tab - Terceira Parte 

E|--16--------|--16--------|--16----------| 
B|-----20-----|-----20-----|-----20-------| 
G|--------20--|--------17--|--------------| 
D|------------|------------|--------18----| 
A|------------|------------|--------------| 
E|------------|------------|--------------| 

E|----------------------------------------| 
B|--------------18~-----------------------| 
G|-----------17---------------------------| 
D|--15-17-18------------------------------| 
A|----------------------------------------| 
E|----------------------------------------| 

E|--16--------|--16--------|--16----------| 
B|-----20-----|-----20-----|-----20-------| 
G|--------20--|--------17--|--------------| 
D|------------|------------|--------18----| 
A|------------|------------|--------------| 
E|------------|------------|--------------| 

E|----------------------------------------| 
B|--------------18~-----------------------| 
G|-----------17---------------------------| 
D|--15-17-18------------------------------| 
A|----------------------------------------| 
E|----------------------------------------| 

E|--16--------|--16--------|--16----------| 
B|-----20-----|-----20-----|-----20-------| 
G|--------20--|--------17--|--------------| 
D|------------|------------|--------18----| 
A|------------|------------|--------------| 
E|------------|------------|--------------| 

E|------------------------------16--------| 
B|--------------18~----------------20-----| 
G|-----------17-----------------------20--| 
D|--15-17-18------------------------------| 
A|----------------------------------------| 
E|----------------------------------------| 

E|----------------------------------------| 
B|----------------------------------------| 
G|--18-17-18---17-------------------17----| 
D|----------------18---(17)-17---18----15-| 
A|----------------------------------------| 
E|----------------------------------------| 

E|----------------------------------------| 
B|--------------18~-----------------------| 
G|-----------17---------------------------| 
D|--15-17-18------------------------------| 
A|----------------------------------------| 
E|----------------------------------------| 

E|--16--------|--16--------|--16----------| 
B|-----20-----|-----20-----|-----20-------| 
G|--------20--|--------17--|--------------| 
D|------------|------------|--------18----| 
A|------------|------------|--------------| 
E|------------|------------|--------------| 

E|------------------------------16--------| 
B|--------------18~----------------20-----| 
G|-----------17-----------------------20--| 
D|--15-17-18------------------------------| 
A|----------------------------------------| 
E|----------------------------------------| 

E|----------------------------------------| 
B|----------------------------------------| 
G|--18-17-18---17-------------------17----| 
D|----------------18---(17)-17---18----15-| 
A|----------------------------------------| 
E|----------------------------------------| 

Tab - Solo Final 

E|--13-----------13-----------13----------| 
B|-----16p14p13-----16p14p13-----16p14p13-| 
G|----------------------------------------| 
D|----------------------------------------| 
A|----------------------------------------| 
E|----------------------------------------| 
		  

auto scroll beats size up size down change color hide chords drawings
tab show chords e-chords YouTube Clip e-chords hide all tabs e-chords go to top tab

share