Robert Johnson

Sweet Home Chicago

Robert Johnson

tabs Beginner beginner

save to print version add songbook text version e-mail correct tuner
chordsukulelecavacokeyboardtabbassdrumsharmonicaflute Guitar Pro
close

there isn't a video lesson for this song

chords

Sweet Home Chicago

	  		(fica mais facil se voce colocar um capo na casa 2 e tocar com a figura dos acordes E , A e  B7 ) 
 
intro:  
 
e|------------------------2----------- 
a|------------------------------------ 
d|------------------------------------ 
g|---9--8--7--6--2h3------------------ 
b|---7--7--7-------------------------- 
e|---9----------------2--------------- 
 
     F#7        ( F#7 )  
oh, baby don't... 
     B7         ( F#7 )    
oh, baby don't...  
     C7 
back to that land... 
 
oh, my sweet home (enquanto ele fala esta frase, ele toca este riff) 
 
g|---------------- 
b|---10b----------       
e|----9b---------- 
 
(no final de cada estrofe ele toca este riff) 
 
e|------------------------2----------- 
a|------------------------------------ 
d|------------------------------------ 
g|---9--8--7--6--2h3------------------ 
b|---7--7--7-------------------------- 
e|---9----------------2--------------- 
 
h= hamer 
 
b= bend 
 
_______________________________________________________ 
Contribuição: marco lafer amorim([email protected]) 

		  

Full key step upFull key step up
Half key step upHalf key step up
Half key step downHalf key step down
Full key step downFull key step down
hide glossary

See also:

tabs Allman Brothers Band - Jessica tabs B.B. King - Three O'Clock Blues tabs Blind Boy Fuller - I crave my pig meat tabs John Lee Hooker - whiskey and wimmen tabs John Lee Hooker - C Blues tabs Blind Boy Fuller - Jivin' Woman Blues
e-chords

Other versions:

tabs Ben Harper - Sweet Home Chicago tabs Robert Johnson - Sweet Home Chicago tabs Robert Johnson - Sweet Home Chicago (ver. 2)
auto scroll beats size up size down change color hide chords drawings
tab show chords e-chords YouTube Clip e-chords hide all tabs e-chords go to top tab

share