Robert Johnson

Last Fair Deal Gone Down

Robert Johnson

tabs

by  ABELAMIN

save to print version add songbook text version e-mail correct tuner
chordsukulelecavacokeyboardtabbassdrumsharmonicaflute Guitar Pro
close

there isn't a video lesson for this song

chords

Last Fair Deal Gone Down

	  		


D||--12--12--12--12----------------|---------------------| 
B||------12--12--12--12------------|---------------------| 
G||------------------12--12\-3--3--|--0---------------0--| 
D||--------------------------------|--------0------0-----| 
G||--------------------------------|-----0-----2/5-------| 
D||--------------------------------|---------------------| 

D||------------------------------|------------|--12----12----12---------| 
B||------------------------------|------------|--12----12----12----0----| 
G||--0--0--0--0--0--0--0--0------|------------|--------------------0----| 
D||--3--------2-----1-----0------|--0---------|--------------------0----| 
G||-----------------------0--2/4-|-------0----|-------------------------| 
D||--3--------2-----1-----0------|------------|-------------------------| 

D||-----------------------|--12-------------------|---------12\-----12---------| 
B||-----------------------|-----------------------|-----12------12-------------| 
G||--0--------------12----|-----------------------|----------------------------| 
D||--0----0---------------|-------------2----2----|--x------0-------0-----0----| 
G||--0----0----0----------|--------0----0----0----|--x------0-------0-----0----| 
D||-------2---------------|--------0--------------|----------------------------| 

D||----------------------|--12-------------------|--------12--------------| 
B||----------------12----|-----------------------|--12--------------------| 
G||----------------------|-----------------------|------------------------| 
D||--0----0--------------|--------2----0----0----|--------------0----x----| 
G||--0----0--------------|--------0----0----0----|--------------0----x----| 
D||----------------------|-----------------------|--------------0----x----| 

D||--------12--------------|--12-------------------|-----------------------| 
B||--12--------------------|-----------------------|-----------------12----| 
G||------------------------|-----------------------|-----------------------| 
D||--------------0----0----|--------0----0----0----|--0----0----0----------| 
G||--------------0----0----|--------0----0----0----|--0----0----0----------| 
D||--------------0----0----|--------0----0----2----|-----------------------| 

D||--12--------------------|----------------------|--------12--------------| 
B||------------------------|----------------------|--12--------------------| 
G||------------------12----|----------------------|------------------------| 
D||--0-----0----0----------|--x----2----0----0----|--------------0----0----| 
G||--0-----0----0----------|--0----0----0----0----|--------------0----0----| 
D||------------------------|----------------------|--------------0----0----| 

D||-------------------------|----------------------|-----------------------|| 
B||-------------------------|----------------------|-------0--0--0---------|| 
G||--12\-----------0--------|-------0----0----0----|--0----0--0--0----x----|| 
D||-------------0-----------|----------------------|-------0--0--0----x----|| 
G||--------0----0-----------|--0-------------------|-------0-----0----x----|| 
D||-------------------2--0--|-------2----1----1----|--0--------------------|| 
		  

See also:

tabs Hot Tuna - Hesitation blues tabs John Lee Hooker - One bourbon, one scotch, one beer tabs Robert Johnson - Me and the devil Blues tabs Allman Brothers Band - Revival tabs Muddy Waters - Same Thing tabs John Wesley Harding - Crystal Blue Persuasion
e-chords

Other versions:

tabs Robert Johnson - Last Fair Deal Gone Down
auto scroll beats size up size down change color hide chords drawings
tab show chords e-chords YouTube Clip e-chords hide all tabs e-chords go to top tab

share