Robbie Williams

Tripping

Robbie Williams

tabs

by  MRDEEPTONE

save to print version add songbook text version e-mail correct tuner
chordsukulelecavacokeyboardtabbassdrumsharmonicaflute Guitar Pro
close

there isn't a video lesson for this song

chords

Tripping

	  		Tripping - Robbie Williams 
Tabbed by Marco Torskyj 
E-mail: [email protected] 
 
 
5-String Bass {H-E-A-D-G) 
 
  1   2   3   4    1   2   3   4    1   2   3   4    1   2   3   4     
G|----------------|----------------|----------------|----------------| 
D|----------------|----------------|----------------|----------------| 
A|----------------|----------------|----------------|----5-----------| 4x 
E|5---5-3-5-6-5-3-|5---------------|5---5-3-5-6-5-3-|5---------------| 
H|----------------|----6---3---3---|----------------|--------3---3---| 
 
 
  1   2   3   4    1   2   3   4    1   2   3   4    1   2   3   4     
G|----------------|----------------|----------------|----------------| 
D|----------------|----------------|----------------|----------------| 
A|----------------|----------------|----------------|----------------| 4x 
E|------------3-3-|5-5-5-5-5-5-----|------------3---|----------------| 
H|6-6-6-6-6-6-----|------------6-6-|3-3-3-3-3-3---6-|3-3-3-3-3-3-3-5-| 
 
 
  1   2   3   4    1   2   3   4    1   2   3   4    1   2   3   4     
G|----------------|----------------|----------------|----------------| 
D|----------------|----------------|----------------|----------------| 
A|----------------|----------------|----------------|----5-----------| 4x 
E|5---5-3-5-6-5-3-|5---------------|5---5-3-5-6-5-3-|5---------------| 
H|----------------|----6---3---3---|----------------|--------3---3---| 
 
 
  1   2   3   4    1   2   3   4    1   2   3   4    1   2   3   4     
G|----------------|----------------|----------------|----------------| 
D|----------------|----------------|----------------|----------------| 
A|----------------|----------------|----------------|----------------| 4x 
E|------------3-3-|5-5-5-5-5-5-----|------------3---|----------------| 
H|6-6-6-6-6-6-----|------------6-6-|3-3-3-3-3-3---6-|3-3-3-3-3-3-3-5-| 
 
 
  1   2   3   4    1   2   3   4    1   2   3   4    1   2   3   4     
G|----------------|----------------|----------------|----------------| 
D|----------------|----------------|----------------|----------------| 
A|------------5---|3---3-3-3-------|------------5---|3---5-----------| 4x 
E|3---3-3-3-------|------------6---|3---3-3-3-------|--------3---6---| 
H|----------------|----------------|----------------|----------------| 
 
 
  1   2   3   4    1   2   3   4    1   2   3   4    1   2   3   4     
G|----------------|----------------|----------------|----------------| 
D|----------------|----------------|----------------|----------------| 
A|----------------|----------------|----------------|----------------| 2x 
E|----------------|----------------|----------------|----------------| 
H|----------------|----------------|----------------|----------------| 
 
 
  1   2   3   4    1   2   3   4    1   2   3   4    1   2   3   4     
G|----------------|----------------|----------------|----------------| 
D|----------------|----------------|----------------|----------------| 
A|----------------|----------------|----------------|----------------| 8x 
E|------------3-3-|5-5-5-5-5-5-----|------------3---|----------------| 
H|6-6-6-6-6-6-----|------------6-6-|3-3-3-3-3-3---6-|3-3-3-3-3-3-3-5-| 
 
 
4-String Bass {E-A-D-G) 
 
  1   2   3   4    1   2   3   4    1   2   3   4    1   2   3   4     
G|----------------|----------------|----------------|----------------| 
D|----------------|--------0---0---|----------------|----0---0---0---| 
A|0---0---0-1-0---|0---------------|0---0---0-1-0---|0---------------| 4x 
E|------3-------3-|----1-----------|------3-------3-|----------------| 
 
 
  1   2   3   4    1   2   3   4    1   2   3   4    1   2   3   4     
G|----------------|----------------|----------------|----------------| 
D|----------------|----------------|0-0-0-0-0-0-----|0-0-0-0-0-0-0-2-| 
A|------------3-3-|0-0-0-0-0-0-----|----------------|----------------| 4x 
E|1-1-1-1-1-1-----|------------1-1-|------------3-1-|----------------| 
 
 
  1   2   3   4    1   2   3   4    1   2   3   4    1   2   3   4     
G|----------------|----------------|----------------|----------------| 
D|----------------|--------0---0---|----------------|----0---0---0---| 
A|0---0---0-1-0---|0---------------|0---0---0-1-0---|0---------------| 4x 
E|------3-------3-|----1-----------|------3-------3-|----------------| 
 
 
  1   2   3   4    1   2   3   4    1   2   3   4    1   2   3   4     
G|----------------|----------------|----------------|----------------| 
D|----------------|----------------|0-0-0-0-0-0-----|0-0-0-0-0-0-0-2-| 
A|------------3-3-|0-0-0-0-0-0-----|----------------|----------------| 4x 
E|1-1-1-1-1-1-----|------------1-1-|------------3-1-|----------------| 
 
 
  1   2   3   4    1   2   3   4    1   2   3   4    1   2   3   4     
G|----------------|----------------|----------------|----------------| 
D|------------0---|----------------|------------0---|----0-----------| 
A|----------------|3---3-3-3---1---|----------------|3-----------1---| 4x 
E|3---3-3-3-------|----------------|3---3-3-3-------|--------3-------| 
 
 
  1   2   3   4    1   2   3   4    1   2   3   4    1   2   3   4     
G|----------------|----------------|----------------|----------------| 
D|----------------|----------------|----------------|----------------| 
A|----------------|----------------|----------------|----------------| 2x 
E|----------------|----------------|----------------|----------------| 
 
 
  1   2   3   4    1   2   3   4    1   2   3   4    1   2   3   4     
G|----------------|----------------|----------------|----------------| 
D|----------------|----------------|0-0-0-0-0-0-----|0-0-0-0-0-0-0-2-| 
A|------------3-3-|0-0-0-0-0-0-----|----------------|----------------| 8x 
E|1-1-1-1-1-1-----|------------1-1-|------------3-1-|----------------| 
 

		  

See also:

tabs Deep Purple - Smoke on the Water (solo) tabs Eagles - Take It Easy tabs Dire Straits - Sultans of Swing tabs White Stripes - the seven nation army tabs Yes - Roundabout tabs Queen - Love of my Life
e-chords

Other versions:

tabs Robbie Williams - Tripping tabs Dave Matthews Band - Tripping Billies tabs Dave Matthews Band - Tripping Billies (ver. 2) tabs Dave Matthews Band - Tripping Billies (ver. 3) tabs Spirit of the West - Tripping Up The Stairs
auto scroll beats size up size down change color hide chords drawings
tab show chords e-chords YouTube Clip e-chords hide all tabs e-chords go to top tab

share