Riverside

home > Riverside

02 Panic Room Tab

Riverside

Difficulty: nolevelnolevel

by joaoewerton

tuner correct add songbook print version text version save to e-mail
chordsukulelecavacokeyboardtabbassdrumsharmonicsflute Guitar Pro
chords

02 Panic Room

  		

Lead theme: 
e|------------------------------------------------------------------------------------------| 
B|-----------------------------------12-------------------------------13-10-12--------------| 
G|------------------9--------------------12----9-----------------9--------------------------| 
D|-------------/7------------------------------------------/7-------------------------------| 
A|------------------------------------------------------------------------------------------| 
E|------------------------------------------------------------------------------------------| 

Heavy riff: 

e|-----------------------------------------------------|------------------------------------------------------| 
B|-----------------------------------------------------|------------------------------------------------------| 
G|-----------------------------------------------------|------------------------------------------------------| 
D|-----------------------------------------------------|------------------------------------------------------| 
A|----------7--------------------------5---------------|---------7------------------------5-------------------| 
E|---5h6-------6--5--6p5------5h6----------6--5--------|---5h6------6--5--6p5------5h6--------6--5-----5------| 


************************************ 

| /   slide up 
| \   slide down 
| h   hammer-on 
| p   pull-off 
| ~   vibrato 
| +   harmonic 
| x   Mute note 
| b   Bend 
| pb  Pre-bend 
| br  Bend release 
| pbr Pre-bend release 
| brb Bend release bend 

************************************ 
	  

Search Paypal
auto scroll beats size up size down change color hide chords drawings
tab show chords e-chords YouTube Clip e-chords hide all tabs e-chords go to top tab