Rival Sons

Open My Eyes

Rival Sons

tabs Beginner beginner

by  JOV-CORREA

save to print version add songbook text version e-mail correct tuner
chordsukulelecavacokeyboardtabbassdrumsharmonicaflute Guitar Pro
close

there isn't a video lesson for this song

chords

Open My Eyes

	  		

Tuning:EADGBE 
Intro riff 
e|-------------------------------------------------------------------------------| 
B|-------------------------------------------------------------------------------| 
G|-------------------------------------------------------------------------------| 
D|-------------------------------------------------------------------------------| 
A|--5--3----------------------------5--------------------------------------------| 
E|--------5--3--5--3--1-----1-1--3-----------------------------------------------| 

Verse chords w/ rhythm 

      D      F         C        G 

e|----2------1---------0---------3------------------------------------------------| 
B|----3------1---------1---------0------------------------------------------------| 
G|----2------2---------0---------0------------------------------------------------| 
D|----0------3---------2---------0------------------------------------------------| 
A|---------------------3---------2------------------------------------------------| 
E|-------------------------------3------------------------------------------------| 


Pre Chorus 

e|--------2------------------3----------------5--------------3------------------| 
B|------3---3-------------5----5------------6---6----------5---5----------------| 
G|----2-------2--------5---------5--------5--------5-----5-------5--------------| 
D|--0---------------0-------------------0--------------0------------------------| 
A|------------------------------------------------------------------------------| 
E|------------------------------------------------------------------------------| 

e|--------2------------------3----------------5------------------------------------| 
B|------3---3-------------5----5------------6---6----------------------------------| 
G|----2-------2--------5---------5--------5--------5-------------------------------| 
D|--0---------------0-------------------0------------------------------------------| 
A|-----------------------------------------------------------------2-3-4-5---------| 
E|------------------------------------------------------2--3--4--5-----------------| 

Chorus repeats Verse chords I believe. not too sure about the solo! cheers 


************************************ 

| /   slide up 
| \   slide down 
| h   hammer-on 
| p   pull-off 
| ~   vibrato 
| +   harmonic 
| x   Mute note 
| b   Bend 
| pb  Pre-bend 
| br  Bend release 
| pbr Pre-bend release 
| brb Bend release bend 

************************************ 
		  

Full key step upFull key step up
Half key step upHalf key step up
Half key step downHalf key step down
Full key step downFull key step down
hide glossary

See also:

tabs Allman Brothers Band - Jessica tabs B.B. King - Three O'Clock Blues tabs Blind Boy Fuller - I crave my pig meat tabs John Lee Hooker - whiskey and wimmen tabs John Lee Hooker - C Blues tabs Blind Boy Fuller - Jivin' Woman Blues
e-chords

Other versions:

tabs The Rasmus - Open my eyes tabs Rival Sons - Open My Eyes
auto scroll beats size up size down change color hide chords drawings
tab show chords e-chords YouTube Clip e-chords hide all tabs e-chords go to top tab

share