Rival Sons

Keep On Swinging

Rival Sons

tabs Expert expert

by  ANDRSOUZA

save to print version add songbook text version e-mail correct tuner
chordsukulelecavacokeyboardtabbassdrumsharmonicaflute Guitar Pro
close

there isn't a video lesson for this song

chords

Keep On Swinging

	  		 

E||---------------------------------|---------------------------------|| 
B||---------------------------------|---------------------------------|| 
G||---------------------------------|---------------------------------|| 
D||-------2--------2---4------------|--2------------------------------|| 
A||---4-------4---------------------|------4----2---------------------|| 
e||---------------------------------|---------------5---2-------------|| 

E||---------------------------------|---------------------------------|| 
B||---------------------------------|------------------2~-------------|| 
G||---------------------------------|------------------2~-------------|| 
D||---------------------------------|-----------------------4---------|| 
A||-------2--------2-----4----------|---2---4---2---------------------|| 
e||---5-------5---------------------|-------------2-------------------|| 



E||---------------------------------|---------------------------------|| 
B||---------------------------------|---------------------------------|| 
G||---------------------------------|---------------------------------|| 
D||-------2--------2---4------------|--2------------------------------|| 
A||---4-------4---------------------|------4----2---------------------|| 
e||---------------------------------|---------------5---2-------------|| 

E||---------------------------------|---------------------------------|| 
B||---------------------------------|------------------2~-------------|| 
G||---------------------------------|------------------2~-------------|| 
D||---------------------------------|-----------------------4---------|| 
A||-------2--------2-----4----------|---2---4---2---------------------|| 
e||---5-------5---------------------|-------------2-------------------|| 



E||---------------------------------|---------------------------------|| 
B||---------------------------------|---------------------------------|| 
G||---------------------------------|---------------------------------|| 
D||-------2--------2---4------------|--2------------------------------|| 
A||---4-------4---------------------|------4----2---------------------|| 
e||---------------------------------|---------------5---2-------------|| 

E||---------------------------------|---------------------------------|| 
B||---------------------------------|------------------2~-------------|| 
G||---------------------------------|------------------2~-------------|| 
D||---------------------------------|-----------------------4---------|| 
A||-------2--------2-----4----------|---2---4---2---------------------|| 
e||---5-------5---------------------|-------------2-------------------|| 



E||---------------------------------|---------------------------------|| 
B||---------------------------------|---------------------------------|| 
G||---------------------------------|---------------------------------|| 
D||-------2--------2---4------------|--2------------------------------|| 
A||---4-------4---------------------|------4----2---------------------|| 
e||---------------------------------|---------------5---2-------------|| 

E||---------------------------------|---------------------------------|| 
B||---------------------------------|------------------4~-------------|| 
G||---------------------------------|------------------4~-------------|| 
D||---------------------------------|---------------------------------|| 
A||-------2--------2-----4----------|---2---4---2---------------------|| 
e||---5-------5---------------------|-------------2-------------------|| 



E||---------------------------------|---------------------------------|| 
B||---------------------------------|---------------------------------|| 
G||-------------------4-------------|-------------------4-------------|| 
D||-----4-----4-------4--2--4-------|-----4-----4-------4--2--4-------|| 
A||--2--4--2--4-------2--0--4-------|--2--4--2--4-------2--0--4-------|| 
e||--0--2--0--2-------------2-------|--0--2--0--2-------------2-------|| 


E||---------------------------------|---------------------------------|| 
B||---------------------------------|---------------------------------|| 
G||-------------------4-------------|-------------------4-----2-------|| 
D||-----4-----4-------4--2--4-------|-----4-----4-------4-----2-------|| 
A||--2--4--2--4-------2--0--4-------|--2--4--2--4---------------------|| 
e||--0--2--0--2-------------2-------|--0--2--0--2---------------------|| 



E||---------------------------------|---------------------------------|| 
B||---------------------------------|---------------------------------|| 
G||---6--6--6----\9------------ ----|---------------------------------|| 
D||---6--6--6----\9-----------------|---------------------------------|| 
A||---4--4--4----\7-----------------|---------------------------------|| 
e||---------------------------------|---------------------------------|| 


then repeat through out song... 



and end with this... 
E||---------------------------------|---------------------------------|| 
B||---------------------------------|---------------------------------|| 
G||---------------------------------|---------------------------------|| 
D||---4--4--4--4--------------------|---4--4--4--4--------------------|| 
A||---4--4--4--4--------------------|---4--4--4--4--------------------|| 
e||---2--2--2--2--------------------|---2--2--2--2--------------------|| 
		  

See also:

tabs John Lee Hooker - Boom Boom tabs B.B. King - Three O'Clock Blues tabs Cowboy Bebop - Rain tabs John Lee Hooker - Im in the mood tabs Robert Johnson - Love in Vain tabs Robert Johnson - Come on in my kitchen
e-chords

Other versions:

tabs Rival Sons - Keep On Swinging
auto scroll beats size up size down change color hide chords drawings
tab show chords e-chords YouTube Clip e-chords hide all tabs e-chords go to top tab

share