Ritchie Valens

home > Ritchie Valens

Malaguena Tab

Ritchie Valens

Difficulty: ExpertExpert

by edsooliveira

tuner correct add songbook print version text version save to e-mail
chordsukulelecavacokeyboardtabbassdrumsharmonicsflute Guitar Pro
chords

Malaguena

  		Intro: 

e|-----0--------------------| 
B|---0-----3-0--------------| 
G|--------------2-1-2-4-2---| 
D|--------------------------| 
A|--------------------------| 
E|--------------------------| 


Riff: 
     E         E 
e|---0---------0---------0---------0-----| 
B|---0---------0---------0---------0-----| 
G|---1---------1---------2---------2-----| 
D|---2---------2---------3---------2-----| 
A|---2---------2---------3---------3-----| 
E|---0---------0---------0---------0-----| 


Outro: 
     E		E                            E 
e|---0---------0---------0------0-----0-----0---| 
B|---0---------0---------0------0-----0-----0---| 
G|---1---------1---------2------4-----3-----2---| 
D|---2---------2---------3------5-----3-----2---| 
A|---2---------2---------3------5-----2-----1---| 
E|---0---------0---------0------0-----0-----0---| 
	  

Full key step upFull key step up
Half key step upHalf key step up
Half key step downHalf key step down
Full key step downFull key step down
Search Paypal
auto scroll beats size up size down change color hide chords drawings
tab show chords e-chords YouTube Clip e-chords hide all tabs e-chords go to top tab