Ricky Furlani

Between The Line

Ricky Furlani

tabs

by  TERR_SCHMITZ

save to print version add songbook text version e-mail correct tuner
chordsukulelecavacokeyboardtabbassdrumsharmonicaflute Guitar Pro
close

there isn't a video lesson for this song

chords

Between The Line

	  		

   G6                 D/F# 
E|---------------------------------------------------| 
B|15~-15-b17-12-15~--15~-15-12-15-b17r15-------------| 
G|---------------------------------------14b16-14-12~| 
D|---------------------------------------------------| 
A|---------------------------------------------------| 
E|---------------------------------------------------| 

Solo - Fa Lídio 

   F7M(11+) 
E|---------------------------------------------------| 
B|-------13----13-13\12\10\8~----8---10---12---------| 
G|---------------------------------------------------| 
D|-9/10-----10----10\9-\7-\5~--5------7----9---------| 
A|---------------------------------------------------| 
E|---------------------------------------------------| 

Solo - La Mixolídio 

  A7 
E|9p5-9-9p5------------------------------------------| 
B|----------8-8p5------------------------------------| 
G|----------------7-7p6------------------------------| 
D|----------------------7-7p5---------------------4-5| 
A|----------------------------7-7p5\4-5p4---4-5-7----| 
E|----------------------------------------7----------| 

E|---------------------------------------------------| 
B|--------------5-7-8-7b8--7b8r7-5~------------------| 
G|--------4-6-7--------------------------------------| 
D|--4-5-7--------------------------------------------| 
A|7--------------------------------------------------| 
E|---------------------------------------------------| 

Solo - Fa Maior 

   F6              C/E 
E|---------------------------------------------------| 
B|15~-15-17----15~-15~-13-15-17-15h17p15p13-13~------| 
G|----------14---------------------------------------| 
D|---------------------------------------------------| 
A|---------------------------------------------------| 
E|---------------------------------------------------| 

Solo - Mi Bemol Maior 

      Eb7M 
E|---15h16-------------16h18-------------------------| 
B|13----------15h16-15----------16h18----------------| 
G|---------13----------------15----------15h17-------| 
D|------------------------------------13-------------| 
A|---------------------------------------------13----| 
E|---------------------------------------------------| 

E|---------------------------------------------------| 
B|---------------------------------------------------| 
G|---------------------------------------------------| 
D|-15h17----15--17--18-------------------------------| 
A|-------15------------------------------------------| 
E|---------------------------------------------------| 

Solo - Sol Mixolídio 

   G7 
E|------------15-------17b19r17p15-17b19-17-15-15~---| 
B|-----18b20~----18-15-------------------------------| 
G|---------------------------------------------------| 
D|-17~-----------------------------------------------| 
A|---------------------------------------------------| 
E|---------------------------------------------------| 

Solo - Mi Bemol Maior 

                     Eb6 
E|---8--10--11--13--13b15--b15--b16--13--b15r13b15~--| 
B|8--------------------------------------------------| 
G|---------------------------------------------------| 
D|---------------------------------------------------| 
A|---------------------------------------------------| 
E|---------------------------------------------------| 

  Bb/D 
E|13b15r13p11----13b15-13-11h13~---------------------| 
B|------------13-------------------------------------| 
G|---------------------------------------------------| 
D|---------------------------------------------------| 
A|---------------------------------------------------| 
E|---------------------------------------------------| 

Solo - Re Bemol Lídio 

   Db7M 
E|---------------------------------------------------| 
B|-6-----8------9------11----------------------------| 
G|-8b10~-10b12~-11b13~-13b15~------------------------| 
D|---------------------------------------------------| 
A|---------------------------------------------------| 
E|---------------------------------------------------| 

Solo - Penta Fa Menor 

   F7 
E|-------13------------------------------------------| 
B|13--------13-16b18~-15b16r15p13----13--------------| 
G|15b17~--------------------------15----13b----------| 
D|------------------------------------------15~------| 
A|---------------------------------------------------| 
E|---------------------------------------------------| 

E|------------------13h16----------------------------| 
B|------------13h16----------------------------------| 
G|------13h15----------------------------------------| 
D|13h15----------------------------------------------| 
A|---------------------------------------------------| 
E|---------------------------------------------------| 

Solo - Re Bemol Maior 

E|16/18~-18-b20-16-16h18~-18~-16-18-20-18h20p18p16-16| 
B|---------------------------------------------------| 
G|---------------------------------------------------| 
D|---------------------------------------------------| 
A|---------------------------------------------------| 
E|---------------------------------------------------| 

Solo - Si Lídio 

   B7M 
E|---------------------------------------------------| 
B|---------------------------------------------------| 
G|----------------------------------------11-11-10-10| 
D|----------------------9-9-8-8-9-9-11-11------------| 
A|----9-9-8-8-9-9-11-11------------------------------| 
E|7-7------------------------------------------------| 

E|---------------------------------------------------| 
B|------------12-12-11-11----------------------------| 
G|11-11-13-13-------------13-13-11-11-10~------------| 
D|---------------------------------------------------| 
A|---------------------------------------------------| 
E|---------------------------------------------------| 

Solo - Si Bemol Lídio 

   Bb7M 
E|---------------------------------------------------| 
B|-8------6----8-----9------11----\------------------| 
G|-10b12~-8b10-10b12-11b13~-13b15~\------------------| 
D|---------------------------------------------------| 
A|---------------------------------------------------| 
E|---------------------------------------------------| 
		  

Full key step upFull key step up
Half key step upHalf key step up
Half key step downHalf key step down
Full key step downFull key step down
hide glossary

See also:

tabs Deep Purple - Ive Got Your Number tabs Deep Purple - Fireball tabs Albert Hammond Jr - Gfc tabs Deep Purple - Fireball (ver. 2) tabs Deep Purple - Never A Word tabs Ira! - Eu quero sempre mais (Solo)
e-chords

Other versions:

tabs Ricky Furlani - Between The Line
auto scroll beats size up size down change color hide chords drawings
tab show chords e-chords YouTube Clip e-chords hide all tabs e-chords go to top tab

share