save to print version add songbook text version e-mail correct tuner
chordsukulelecavacokeyboardtabbassdrumsharmonicaflute Guitar Pro
close

there isn't a video lesson for this song

chords

Who Says?

	  		

Verse: 
Guitar R 
e|-0----------(3)-------------12-14-1414--12------| 
B|-0----------(3)-------------12-12-1212--12------| 
G|-1-----------4--------------12-12-1212--12------| 
D|-2-----------5----------------------------------| 
A|-2-----------5----------------------------------| 
E|-0-----------3----------------------------------| 
+ 
e|-0----------(3)-------------12-14-1414--12------| 
B|-0----------(3)-------------12-12-1212--12------| 
G|-1-----------4--------------12-12-1212--12------| 
D|-2-----------5----------------------------------| 
A|-2-----------5----------------------------------| 
E|-0-----------3----------------------------------| 
+ 
e|----10-12-1212--10----------14-14-1414--12------| 
B|----10-10-1010--10----------12-12-1212--12------| 
G|----10-10-1010--10----------12-12-1212--12------| 
D|------------------------------------------------| 
A|------------------------------------------------| 
E|------------------------------------------------| 
+ 
e|-------0-----0--0--------2--2--2--2--2--2--2----| 
B|-------0-----3~-0--------1--1--1--1--1--1--1----| 
G|-1-----1-----1--1--------2--2--2--2--2--2--2----| 
D|-2-----2-----2--2--------0--0--0--0--0--0--0----| 
A|-2----------------------------------------------| 
E|-0----------------------------------------------| 
+ 
e|------------------------| 
B|-10-9--8--7--6--5--4--3-| 
G|-9--8--7--6--5--4--3--2-| 
D|------------------------| 
A|------------------------| 
E|------------------------| 



Verse: 
Guitar L 
e|------------------------------------------------| 
B|------------------------------------------------| 
G|------------------------------------------------| 
D|------------------------------------------------| 
A|-2-----------5--------------------4-4-5-5--6--7-| 
E|-0-----------3--------------5--5----------------| 
+ 
e|------------------------------------------------| 
B|------------------------------------------------| 
G|------------------------------------------------| 
D|-------------------------------------------3--5-| 
A|-2-----------5--------------------4-4-5-5-------| 
E|-0-----------3--------------5--5----------------| 
+ 
e|------------------------------------------------| 
B|------------------------------------------------| 
G|------------------------------------------------| 
D|-------------------------------------------3--5-| 
A|----------2-2-3-3--5--7-----------4-4-5-5-------| 
E|----3--3--------------------5--5----------------| 
+ 
e|------------------------------------------------| 
B|------------------------------------------------| 
G|-9--9--9--9--9--9--9--9--7--7--7--7--7--7--7--7-| 
D|-9--9--9--9--9--9--9--9--7--7--7--7--7--7--7--7-| 
A|-7--7--7--7--7--7--7--7--5--5--5--5--5--5--5--5-| 
E|------------------------------------------------| 
+ 
e|------------------------| 
B|------------------------| 
G|------------------------| 
D|------------------------| 
A|-12-11-10-9--8--7--6--5-| 
E|------------------------| 



Chorus: 
Guitar R 
e|-------9--9--9--9--9----------------------------| 
B|-8--8--8--8--8--8--8--------8--8-\6-------------| 
G|-8--8--8--8--8--8--8--------8--8-\6-------------| 
D|-8--8--8--8--8--8--8--------8--8-\6-------------| 
A|-------------------------6--------------4-------| 
E|-------------------------------------------6--4-| 
+ 
e|-------9--9--9--9--9----------------------------| 
B|-------8--8--8--8--8--------8--8-\6-------------| 
G|-------8--8--8--8--8--------8--8-\6-------------| 
D|-------8--8--8--8--8--------8--8-\6-------------| 
A|h6--6--------------------6-----------4--6-------| 
E|-------------------------------------------6--4-| 
+ 
e|-------9--9--9--9--9----------------------------| 
B|-------8--8--8--8--8--------8--8-\6-------------| 
G|-------8--8--8--8--8--------8--8-\6-------------| 
D|-------8--8--8--8--8--------8--8-\6-------------| 
A|h6--6--------------------6-----------4--6-------| 
E|-------------------------------------------6--4-| 
+ 
e|-------9--9--9--9--9----------------------------| 
B|-------8--8--8--8--8-----8--8-\6--8-------------| 
G|-------8--8--8--8--8-----8--8-\6--8-------------| 
D|-------8--8--8--8--8-----8--8-\6--8-------------| 
A|h6--6--------------------6--6-\4--6-------------| 
E|------------------------------------------------| 



Chorus: 
Guitar L 
e|----------------------------8--8-\6-------------| 
B|----------------------------8--8-\6-------------| 
G|----8--6-/8--11-8--6--------8--8-\6-----6--6-/7-| 
D|----8--6-/8--11-8--6--------------------6--6-/7-| 
A|----6-----------------6-----------------4--4-/5-| 
E|------------------------------------------------| 
+ 
e|----------------------------8--8-\6-------------| 
B|----------------------------8--8-\6-------------| 
G|/8--8--6-/8--11-8--6--------8--8-\6-----6--6-/7-| 
D|/8--8--6-/8--11-8--6--------------------6--6-/7-| 
A|/6--6-----------------6-----------------4--4-/5-| 
E|------------------------------------------------| 
+ 
e|----------------------------8--8-\6-------------| 
B|----------------------------8--8-\6-------------| 
G|/8--8-----8--11-8--6--------8--8-\6-----6--6-/7-| 
D|/8--8-----8--11-8--6--------------------6--6-/7-| 
A|/6--6-----------------6-----------------4--4-/5-| 
E|------------------------------------------------| 
+ 
e|------------------------------------------------| 
B|------------------------------------------------| 
G|/8--8-----8--11-8--6----------------------------| 
D|/8--8-----8--11-8--6-----8--8--6--8-------------| 
A|/6--6-----------------6--6--6--4--6-------------| 
E|------------------------------------------------| 



Song Structure: 
Verse 
Chorus 
Verse 
Chorus 
Verse 
Chorus 
Verse 
Chorus  
		  

See also:

tabs Ira! - Envelheço na Cidade tabs Deep Purple - Smoke On Water tabs Ira! - Inundação de Amor tabs Deep Purple - Stormbringer tabs Deep Purple - Money Talks tabs Ira! - A vida por um fio
e-chords

Other versions:

tabs John Mayer - Who Says tabs Funkadelic - Who Says A Funk Band Can't Play Rock tabs Richard Hell And The Voidoids - Who Says?
auto scroll beats size up size down change color hide chords drawings
tab show chords e-chords YouTube Clip e-chords hide all tabs e-chords go to top tab

share