Ricardo Silveira

home > Ricardo Silveira

Bom De Tocar Tab

Ricardo Silveira

Difficulty: nolevelnolevel

by Acelot

tuner correct add songbook print version text version save to e-mail
chordsukulelecavacokeyboardtabbassdrumsharmonicsflute Guitar Pro
chords

Bom De Tocar

(Ricardo Silveira)

  		
Parte A:  


Parte 1:  

e|------------------------------7------------------------|  
B|------------------8-----9/10-----8---------------------|  
G|-------7----8h9-----9---------------9--6/7-----7--7----|  
D|--7/9----9----------------------------------9--------9-|  
A|-------------------------------------------------------|  
E|-------------------------------------------------------|  

Parte 2:  

e|------------------------------7-----------------------|  
B|------------------8-----9/10-----8---------------8----|  
G|-------7----8h9-----9---------------9--7-----7------9-|  
D|--7/9----9--------------------------------9-----------|  
A|------------------------------------------------------|  
E|------------------------------------------------------|  

Ponte:  

e|---------------------|  
B|---------------------|  
G|---------9--8--7--6--|  
D|---7h9---------------|  
A|---------------------|  
E|---------------------|  

Parte B:  

e|----------6/7---------------------------7--8p7---|  
B|-------8-----------------------7h8h10------------|  
G|----9-----------9--7--9---7h9--------------------|  
D|-------------------------------------------------|  
A|-------------------------------------------------|  
E|-------------------------------------------------|  

e|--------------------------10-------12---11/12--|  
B|---------------8-----------8-------12---11/12--|  
G|---------7--------7--------8-------------------|  
D|------7-----7--------7-----7-------------------|  
A|---7-------------------------------------------|  
E|-----------------------------------------------|  

	  

Search Paypal
auto scroll beats size up size down change color hide chords drawings
tab show chords e-chords YouTube Clip e-chords hide all tabs e-chords go to top tab