Revis

Caught In The Rain

Revis

tabs Beginner beginner

save to print version add songbook text version e-mail correct tuner
chordsukulelecavacokeyboardtabbassdrumsharmonicaflute Guitar Pro
close

there isn't a video lesson for this song

chords

Caught In The Rain

	  		 
Tuning: DADGBE (Drop D) 
 
This is a cool song from a cool new rock group. 
 
Intro 
Misc sound effects for three seconds 
 
Guitar One 
(slight distortion) 
--------------------------------------------------------------------- 
--------------------------------------------------------------------- 
--------------------------------------------------------------------- 
--------------------------------------------------------------------- 
7-7-7-5-5-5-0-0-0-7-7-7-5-5-5-0-0-0-7-7-7-5-5-5-0-0-0-7-7-7-5-5-0-0-- 
4-4-4-4-4-4-4-4-4-4-4-4-4-4-4-4-4-4-5-5-5-5-5-5-5-5-5-5-5-5-5-5-5-5-- 
 
Guitar One Tacet 
 
Guitar Two 
(distortion and wah-wah) 
--------------------------------5-5-5-5-5-5-5-------------0-0-------- 
--------------------------------5-5-5-5-5-5-5-7-7-7-7-7-------0--0--- 
--------------------------------------------------------------------- 
--------------------------------------------------------------------- 
4-5-0-0-7-7-7-4-7-5-7-5-7-7-7-7-------------------------------------- 
--------------------------------------------------------------------- 
 
Guitar Three 
(distortion) 
--------------------------------------------------------------------- 
--------------------------------------------------------------------- 
--------------------------------------------------------------------- 
--------------------------------------------------------------------- 
4-4-4-4-4-4-4-4-4-4-4-4-4-4---7-7-7-7-7-7-5-5-5-5-5-5-5-5-5---------- 
7-7-7-7-7-7-7-7-7-7-7-7-7-7-0-4-4-4-4-4-4-4-4-4-4-4-4-4-4-4---------- 
 
Guitar Two 
-------------------------9--9--9--9--5-5-5-5-5-5--------------------- 
------------------------10-10-10-10--------------7-7-7-7-7-7-5-5-5-5- 
--------------------------------------------------------------------- 
------------0-0-0-0-0-0---------------------------------------------- 
4-5-4-5-4-5-0-0-0-0-0-0---------------------------------------------- 
--------------------------------------------------------------------- 
 
Guitar Three 
--------------------------------------------------------------------- 
--------------------------------------------------------------------- 
--------------------------------------------------------------------- 
--------------------------------------------------------------------- 
4-4-4-4-4-4-4-4-4-4-4-4-4-4---7-7-7-7-7-7-5-5-5-5-5-5-5-5-5---------- 
7-7-7-7-7-7-7-7-7-7-7-7-7-7-0-4-4-4-4-4-4-4-4-4-4-4-4-4-4-4---------- 
 
Verse 
Guitar Four 
(Acoustic) 
0-0-0-0-0-0-0-0--0-0-0-0-0-0-0-0---0--0--0--0--0--0-0-0-0-0-0-0----- 
0-0-0-0-0-0-0-0--0-0-0-0-0-0-0-0--10-10-10-10-10-10-7-7-7-7-7-7----- 
6-7-6-7-6-7-6-7--6-6-6-6-6-6-6-6---0--0--0--0--0--0-0-0-0-0-0-0----- 
5-5-5-5-5-5-5-5--6-6-6-6-6-6-6-6---7--7--7--7--7--7-4-4-4-4-4-4----- 
0-0-0-0-0-0-0-0--0-0-0-0-0-0-0-0---9--9--9--9--9--9-5-5-5-5-5-5-0-0- 
-------------------------------------------------------------------- 
 
0-0-0-0-0-0-0-0--0-0-0-0-0-0-0-0---0--0--0--0--0--0-0-0-0-0-0-0----- 
0-0-0-0-0-0-0-0--0-0-0-0-0-0-0-0--10-10-10-10-10-10-7-7-7-7-7-7----- 
6-7-6-7-6-7-6-7--6-6-6-6-6-6-6-6---0--0--0--0--0--0-0-0-0-0-0-0----- 
5-5-5-5-5-5-5-5--6-6-6-6-6-6-6-6---7--7--7--7--7--7-4-4-4-4-4-4----- 
0-0-0-0-0-0-0-0--0-0-0-0-0-0-0-0---9--9--9--9--9--9-5-5-5-5-5-5-0-0- 
-------------------------------------------------------------------- 
 
0-0-0-0-0-0-0-0--0-0-0-0-0-0-0-0---0--0--0--0--0--0-0-0-0-0-0-0----- 
0-0-0-0-0-0-0-0--0-0-0-0-0-0-0-0--10-10-10-10-10-10-7-7-7-7-7-7----- 
6-7-6-7-6-7-6-7--6-6-6-6-6-6-6-6---0--0--0--0--0--0-0-0-0-0-0-0----- 
5-5-5-5-5-5-5-5--6-6-6-6-6-6-6-6---7--7--7--7--7--7-4-4-4-4-4-4----- 
0-0-0-0-0-0-0-0--0-0-0-0-0-0-0-0---9--9--9--9--9--9-5-5-5-5-5-5-0-0- 
-------------------------------------------------------------------- 
 
0-0-0-0-0-0-0-0--0-0-0-0-0-0-0-0---0--0--0--0--0--0-0-0-0-0-0-0----- 
0-0-0-0-0-0-0-0--0-0-0-0-0-0-0-0--10-10-10-10-10-10-7-7-7-7-7-7----- 
6-7-6-7-6-7-6-7--6-6-6-6-6-6-6-6---0--0--0--0--0--0-0-0-0-0-0-0----- 
5-5-5-5-5-5-5-5--6-6-6-6-6-6-6-6---7--7--7--7--7--7-4-4-4-4-4-4----- 
0-0-0-0-0-0-0-0--0-0-0-0-0-0-0-0---9--9--9--9--9--9-5-5-5-5-5-5-0-0- 
-------------------------------------------------------------------- 
 
Before Chorus (While Guitar Four Is Finishing) (At "It Was You" 
Guitar Three 
Harmonize 
----------- 
----------- 
5-5-5-5---- 
----------- 
----------- 
----------- 
 
Chorus 
Guitar Three 
                                                     __1/2 Bend 
-------------------------------------------------------------------- 
-------------------------------------------------------------------- 
------------------------------------------------------6---6--------- 
------------4-4-4-------7-7-7--------------------------------------- 
7-7-7-7-7-7-7-7-7-5-5-5-4-4-4-7-7-7-7--7-7-2--2-2-2-2--------------- 
5-5-5-5-5-5-0-0-0-0-0-0-------7-7-7-7--7-7-2--2-2-2-2--------------- 
 
                                                 1/2     1/2 
-------------------------------------------------------------------- 
-------------------------------------------------------------------- 
------------------------------------------------6---6-0-6---6------- 
------------4-4-4-------7-7-7-7------------------------------------- 
7-7-7-7-7-7-7-7-7-5-5-5-4-4-4-4-4-5-4-5-5-5-0-0--------------------- 
5-5-5-5-5-5-0-0-0-0-0-0---------7-7-7-7-7-7-7-7--------------------- 
 
                                                     __1/2 Bend 
-------------------------------------------------------------------- 
-------------------------------------------------------------------- 
------------------------------------------------------6---6--------- 
------------4-4-4-------7-7-7--------------------------------------- 
7-7-7-7-7-7-7-7-7-5-5-5-4-4-4-7-7-7-7--7-7-2--2-2-2-2--------------- 
5-5-5-5-5-5-0-0-0-0-0-0-------7-7-7-7--7-7-2--2-2-2-2--------------- 
 
                                                 1/2     1/2 
-------------------------------------------------------------------- 
-------------------------------------------------------------------- 
------------------------------------------------6---6-0-6---6------- 
------------4-4-4-------7-7-7-7------------------------------------- 
7-7-7-7-7-7-7-7-7-5-5-5-4-4-4-4-4-5-4-5-5-5-0-0--------------------- 
5-5-5-5-5-5-0-0-0-0-0-0---------7-7-7-7-7-7-7-7--------------------- 
 
Guitar Three 
Guitar Four 
0-0-0-0-0-0-0- 
0-0-0-0-0-0-0- 
6-7-6-7-6-7-6- 
5-5-5-5-5-5-5- 
0-0-0-0-0-0-0- 
-------------- 
 
Verse Two 
Guitar Four Plays What He Did The In The First Verse Four Times 
Guitar Three 
-------------------------------------------------------------------- 
-------------------------------------------------------------------- 
-------------------------------------------------------------------- 
-------------------------------------------------------------------- 
-------------------------------------------------------------------- 
7-7-7-7------------------------------4-4-4-4-4-4-------------------- 
 
-------------------------------------------------------------------- 
-------------------------------------------------------------------- 
-------------------------------------------------------------------- 
-------------------------------------------------------------------- 
-------------------------------------------------------------------- 
7-7-7-7------------------------------4-4-4-4-4-4-------------------- 
 
Guitar Three Tacet 
Guitar Two 
------------------------------------------ 
------------------------------------------ 
------------------------------------------ 
------------------------------------------ 
------5----------------------------------- 
5-7-7---7-5-7-7-5--7-7-5-7--7-5-7-7------- 
 
-------------------------------- 
-------------------------------- 
------------------------7-7----- 
----------------------------7-7- 
-------------------------------- 
5-7-7-5-7-7-5-7-7-5-7-5--------- 
 
Guitar Two Plays  
------------------------------------------ 
------------------------------------------ 
------------------------------------------ 
------------------------------------------ 
------5----------------------------------- 
5-7-7---7-5-7-7-5--7-7-5-7--7-5-7-7------- 
 
-------------------------------- 
-------------------------------- 
------------------------7-7----- 
----------------------------7-7- 
-------------------------------- 
5-7-7-5-7-7-5-7-7-5-7-5--------- 
 
While Guitar Three Plays 
-------------------------------------------------------------------- 
-------------------------------------------------------------------- 
-------------------------------------------------------------------- 
-------------------------------------------------------------------- 
-------------------------------------------------------------------- 
7-7-7-7-------------------------------4-4-4-4-4-4------------------- 
 
Repeat Chorus 
 
Interlude 
Guitar One 
------------------------------------- 
------------------------------------- 
------------------------------------- 
------------------------------------- 
-----7-7-7-5-5-5-0-0-0-7-7-7-5-5-0-0- 
-----5-5-5-5-5-5-5-5-5-5-5-5-5-5-5-5- 
 
Guitar One Tacet 
Guitar Three 
---------------------------------- 
---------------------------------- 
---------------------------------- 
---------------------------------- 
7-7-7-5-5-5-0-0-0-7-7-7-5-5-5-0-0- 
4-4-4-4-4-4-4-4-4-4-4-4-4-4-4-4-4- 
 
-------------------------------------------------------------------- 
-------------------------------------------------------------------- 
-------------------------------------------------------------------- 
-------------------------------------------------------------------- 
7-7-7-5-5-5-0-0-0-7-7-7-5-5-0-0-7-7-7-7-7-7-7-7-7-7-7-7-7-7-7-7----- 
5-5-5-5-5-5-5-5-5-5-5-5-5-5-5-5-7-7-7-7-7-7-7-7-7-7-7-7-7-7-7-7----- 
 
Guitar Two  
  1/2            1/2              1/2       1    
-------------------------------------------------------------15------- 
14--14----------14--14----------14--14----17--17----------14----14---- 
-------12-14-12--------12-14-12--------12--------12-14-12----------12- 
---------------------------------------------------------------------- 
---------------------------------------------------------------------- 
---------------------------------------------------------------------- 
 
 
Guitar Three 
                                                     __1/2 Bend 
-------------------------------------------------------------------- 
-------------------------------------------------------------------- 
------------------------------------------------------6---6--------- 
------------4-4-4-------7-7-7--------------------------------------- 
7-7-7-7-7-7-7-7-7-5-5-5-4-4-4-7-7-7-7--7-7-2--2-2-2-2--------------- 
5-5-5-5-5-5-0-0-0-0-0-0-------7-7-7-7--7-7-2--2-2-2-2--------------- 
 
  1/2            1/2              1/2                       
------------------------------------------- 
14--14----------14--14----------14--14----- 
-------12-14-12--------12-14-12--------12-- 
------------------------------------------- 
------------------------------------------- 
------------------------------------------- 
 
-------------------------------------------------------------------- 
-------------------------------------------------------------------- 
-------------------------------------------------------------------- 
-------------------------------------------------------------------- 
7-7-7-5-5-5-0-0-0-7-7-7-5-5-0-0-7-7-7-7-7-7-7-7-7-7-7-7-7-7-7-7----- 
5-5-5-5-5-5-5-5-5-5-5-5-5-5-5-5-7-7-7-7-7-7-7-7-7-7-7-7-7-7-7-7----- 
            
The Notes With Arrows Over Them Indicate Pre Bends, and aren't actually picked just bent   
            1/2          1 
            ^  ^  ^  ^   ^  ^  ^  ^  ^      (hold echo)  
15-15-15-15-15-15-15-15--15-15-15-15-15---- 
------------------------------------------- 
------------------------------------------- 
------------------------------------------- 
------------------------------------------- 
------------------------------------------- 
 
Chorus 
Guitar Three Tacet 
Guitars One And Four            
----------------------------------------------------------------------- 
----------------------------------------------------------------------- 
----------------------------------------------------------------------- 
--------------------------------7---7-7-----2----2-2----2-2----0-0----- 
---7---7---7-7---7-7--0--4--4-4-7---7-7-----2----2-2----2-2----0-0----- 
---5---5---5-0---0-0--0--0--0-0-7---7-7-----2----2-2----2-2----0-0----- 
               Guitar Two Tacet^ 
---------------------------------------------- 
---------------------------------------------- 
---------------------------------------------- 
--------------------------------7------------- 
---7---7---7-7---7-7--0--4--4-4-7------------- 
---5---5---5-0---0-0--0--0--0-0-7------------- 
 
Guitars One And Four Tacet 
Guitar Three 
                                                     __1/2 Bend 
-------------------------------------------------------------------- 
-------------------------------------------------------------------- 
------------------------------------------------------6---6--------- 
------------4-4-4-------7-7-7--------------------------------------- 
7-7-7-7-7-7-7-7-7-5-5-5-4-4-4-7-7-7-7--7-7-2--2-2-2-2--------------- 
5-5-5-5-5-5-0-0-0-0-0-0-------7-7-7-7--7-7-2--2-2-2-2--------------- 
 
                                                 1/2     1/2 
-------------------------------------------------------------------- 
-------------------------------------------------------------------- 
------------------------------------------------6---6-0-6---6------- 
------------4-4-4-------7-7-7-7------------------------------------- 
7-7-7-7-7-7-7-7-7-5-5-5-4-4-4-4-4-5-4-5-5-5-0-0--------------------- 
5-5-5-5-5-5-0-0-0-0-0-0---------7-7-7-7-7-7-7-7--------------------- 
 
Outro 
Guitar Two 
 1/2            1/2              1/2       1    
-------------------------------------------------------------15------- 
14--14----------14--14----------14--14----17--17----------14----14---- 
-------12-14-12--------12-14-12--------12--------12-14-12----------12- 
---------------------------------------------------------------------- 
---------------------------------------------------------------------- 
---------------------------------------------------------------------- 
 
Guitar Three 
------------------------------------------------------------------------ 
------------------------------------------------------------------------ 
------------------------------------------------------------------------ 
----------------------------7-7-7-7------------------------------------- 
----7-7-7-7-7-7-7-7-7-7-7-7-4-4-4-4-7-7-7-7-7-7-2-2-2-2-2-2-2-2-2-2-2-2- 
----5-5-5-5-5-5-0-0-0-0-0-0---------7-7-7-7-7-7-2-2-2-2-2-2-2-2-2-2-2-2- 
 
 
Guitar Two 
 1/2            1/2              1/2       1    
-------------------------------------------------------------15------- 
14--14----------14--14----------14--14----17--17----------14----14---- 
-------12-14-12--------12-14-12--------12--------12-14-12----------12- 
---------------------------------------------------------------------- 
---------------------------------------------------------------------- 
---------------------------------------------------------------------- 
 
Guitar Three 
------------------------------------------------------------------------ 
------------------------------------------------------------------------ 
------------------------------------------------------------------------ 
----------------------------7-7-7-7------------------------------------- 
----7-7-7-7-7-7-7-7-7-7-7-7-4-4-4-4-7-7-7-7-7-7-2-2-2-2-2-2-2-2-2-2-2-2- 
----5-5-5-5-5-5-0-0-0-0-0-0---------7-7-7-7-7-7-2-2-2-2-2-2-2-2-2-2-2-2- 
 
 
Guitar Two 
 1/2            1/2              1/2       1    
-------------------------------------------------------------15------- 
14--14----------14--14----------14--14----17--17----------14----14---- 
-------12-14-12--------12-14-12--------12--------12-14-12----------12- 
---------------------------------------------------------------------- 
---------------------------------------------------------------------- 
---------------------------------------------------------------------- 
 
 
Guitar Three 
------------------------------------------------------------------------ 
------------------------------------------------------------------------ 
------------------------------------------------------------------------ 
----------------------------7-7-7-7------------------------------------- 
----7-7-7-7-7-7-7-7-7-7-7-7-4-4-4-4-7-7-7-7-7-7-2-2-2-2-2-2-2-2-2-2-2-2- 
----5-5-5-5-5-5-0-0-0-0-0-0---------7-7-7-7-7-7-2-2-2-2-2-2-2-2-2-2-2-2- 
 
 1/2            1/2              1/2          
------------------------------------------ 
14--14----------14--14----------14--14---- 
-------12-14-12--------12-14-12--------12- 
------------------------------------------ 
------------------------------------------ 
------------------------------------------ 
 
Guitar Three 
-------------------------------------------------------- 
-------------------------------------------------------- 
-------------------------------------------------------- 
----------------------------------------7--7--7--7------ 
----7--7--7--7--7--7--7--7--7--7--7--7--4--4--4--4--7--- 
----5--5--5--5--5--5--0--0--0--0--0--0--------------7--- 
 
Thats IT! 

		  

Full key step upFull key step up
Half key step upHalf key step up
Half key step downHalf key step down
Full key step downFull key step down
hide glossary

See also:

tabs Ted Mulry Gang - Jump In My Car tabs Thirsty Merc - Someday, Someday tabs Grinspoon - Chemical Heart tabs The Saints - Stranded tabs Powderfinger - My Happiness tabs Ed Kuepper - By The Way
e-chords

Other versions:

tabs Revis - Caught In The Rain
auto scroll beats size up size down change color hide chords drawings
tab show chords e-chords YouTube Clip e-chords hide all tabs e-chords go to top tab

share