Reuben

Oh The Shame

Reuben

tabs

by  TAMAMOREIRA

save to print version add songbook text version e-mail correct tuner
chordsukulelecavacokeyboardtabbassdrumsharmonicaflute Guitar Pro
close

there isn't a video lesson for this song

chords

Oh The Shame

	  		

Tuning: D# G# C# F# Bb d# 


Intro: 
d#|--------------------------------------------------| 
Bb|--------------------------------------------------| 
F#|-9---9-9---9-9---9-9-9-9-9---9-9---9-9---9-9-9-9--| 
C#|-9---9-9---9-9---9-9-9-9-9---9-9---9-9---9-9-9-9--| 
G#|-7---7-7---7-7---7-7-7-7-7---7-7---7-7---7-7-7-7--| 
D#|--------------------------------------------------| x2 

VERSE I: 
d#|--------------------------------------------------| 
Bb|--------------------------------------------------| 
F#|-9---9-9---9-9---9-9-9-9-9---9-9---9-9---9-9-9-9--| 
C#|-9---9-9---9-9---9-9-9-9-9---9-9---9-9---9-9-9-9--| 
G#|-7---7-7---7-7---7-7-7-7-7---7-7---7-7---7-7-7-7--| 
D#|--------------------------------------------------| x2 

d#|--------------------------------------------------| 
Bb|--------------------------------------------------| 
F#|--------------------------------------------------| 
C#|-9---9-9---9-9---9-9-9-9-9---9-9---9-9---9-9-9-9--| 
G#|-7---7-7---7-7---7-7-7-7-7---7-7---7-7---7-7-7-7--| 
D#|-8---8-8---8-8---8-8-8-8-8---8-8---8-8---8-8-8-8--| 

d#|--------------------------------------------------| 
Bb|--------------------------------------------------| 
F#|--------------------------------------------------| 
C#|-9---9-9---9-9---9-9-9-9-9---9-9---9-9---9-9-9-9--| 
G#|-7---7-7---7-7---7-7-7-7-7---7-7---7-7---7-7-7-7--| 
D#|-5---5-5---5-5---5-5-5-5-7---7-7---7-7---7-7-7-7--| 

d#|--------------------------------------------------| 
Bb|--------------------------------------------------| 
F#|-9---9-9---9-9---9-9-9-9-9---9-9---9-9---9-9-9-9--| 
C#|-9---9-9---9-9---9-9-9-9-9---9-9---9-9---9-9-9-9--| 
G#|-7---7-7---7-7---7-7-7-7-7---7-7---7-7---7-7-7-7--| 
D#|--------------------------------------------------| 

d#|--------------------------------------------------| 
Bb|--------------------------------------------------| 
F#|-8---8-8---8-8---8-8-8-8-9---9-9---9-9---9-9-9-9--| 
C#|-9---9-9---9-9---9-9-9-9-9---9-9---9-9---9-9-9-9--| 
G#|-7---7-7---7-7---7-7-7-7-7---7-7---7-7---7-7-7-7--| 
D#|--------------------------------------------------| 

d#|--------------------------------------------------| 
Bb|--------------------------------------------------| 
F#|--------------------------------------------------| 
C#|-9---9-9---9-9---9-9-9-9-9---9-9---9-9---9-9-9-9--| 
G#|-7---7-7---7-7---7-7-7-7-7---7-7---7-7---7-7-7-7--| 
D#|-8---8-8---8-8---8-8-8-8-8---8-8---8-8---8-8-8-8--| 

d#|--------------------------------------------------| 
Bb|--------------------------------------------------| 
F#|--------------------------------------------------| 
C#|-9---9-9---9-9---9-9-9-9-9---9-9---9-9---9-9-9-9--| 
G#|-7---7-7---7-7---7-7-7-7-7---7-7---7-7---7-7-7-7--| 
D#|-5---5-5---5-5---5-5-5-5-7---7-7---7-7---7-7-7-7--| 

Chorus I: 
d#|--------------------------------------------------| 
Bb|--------------------------------------------------| 
F#|--------------------------------------------------| 
C#|-7---7---7---7---7---7---7---7---7---7---7---7----| 
G#|-7---7---7---7---7---7---7---7---7---7---7---7----| 
D#|-5---5---5---5---5---5---5---5---5---5---5---5----| 

d#|--------------------------------------------------| 
Bb|--------------------------------------------------| 
F#|--------------------------------------------------| 
C#|-10--10--10--10--10--10--12--12--12--12--12--12---| 
G#|-10--10--10--10--10--10--12--12--12--12--12--12---| 
D#|-8---8---8---8---8---8---10--10--10--11--11--11---| 

INTERLUDE: 
d#|---------------------| 
Bb|---------------------| 
F#|---------------------| 
C#|-2---2-----2---2-----| 
G#|-2---2-----2---2-----| 
D#|-0---0-----0---0-----| x3 

d#|-----------------------| 
Bb|-----------------------| 
F#|-----------------------| 
C#|-----------------------| 
G#|-----------------------| 
D#|-4-0--0--0-4--0--5-----| 

VERSE II: 
d#|--------------------------------------------------| 
Bb|--------------------------------------------------| 
F#|-9---9-9---9-9---9-9-9-9-8---8-8---8-9---9-9-9-9--| 
C#|-9---9-9---9-9---9-9-9-9-9---9-9---9-9---9-9-9-9--| 
G#|-7---7-7---7-7---7-7-7-7-7---7-7---7-7---7-7-7-7--| 
D#|--------------------------------------------------| 

d#|--------------------------------------------------| 
Bb|--------------------------------------------------| 
F#|-8---8-8---8-9---9-9-9-9-8---8-8---8-9---9-9-9-9--| 
C#|-9---9-9---9-9---9-9-9-9-9---9-9---9-9---9-9-9-9--| 
G#|-7---7-7---7-7---7-7-7-7-7---7-7---7-7---7-7-7-7--| 
D#|--------------------------------------------------| 

d#|--------------------------------------------.--------| 
Bb|-----------------------------------------------------| 
F#|-----------------------------------------------------| 
C#|-9---9-9-9-9-9---9-9-9-9-9---9-9-9-9-9---9--9--9--9--| 
G#|-7---7-7-7-7-7---7-7-7-7-7---7-7-7-7-7---7--7--7--7--| 
D#|-8---8-8-8-8-7---7-7-7-7-5---5-5-5-5-10--10-10-10-10-| 

d#|--------------------------------------------------| 
Bb|--------------------------------------------------| 
F#|--------------------------------------------------| 
C#|-9---9-9---9-9---9-9-9-9-9---9-9---9-9---9-9-9-9--| 
G#|-7---7-7---7-7---7-7-7-7-7---7-7---7-7---7-7-7-7--| 
D#|-7---7-7---7-7---7-7-7-7-7---7-7---7-7---7-7-7-7--| 

d#|--------------------------------------------------| 
Bb|--------------------------------------------------| 
F#|-9---9-9---9-9---9-9-9-9-9---9-9---9-9---9-9-9-9--| 
C#|-9---9-9---9-9---9-9-9-9-9---9-9---9-9---9-9-9-9--| 
G#|-7---7-7---7-7---7-7-7-7-7---7-7---7-7---7-7-7-7--| 
D#|--------------------------------------------------| 

d#|------------------------------------------------------| 
Bb|------------------------------------------------------| 
F#|-9---9-9---9-9---9-9-9-9-9---9-9-9-9-9---9--9--9--9---| 
C#|-9---9-9---9-9---9-9-9-9-9---9-9-9-9-9---9--9--9--9---| 
G#|-6---6-6---6-6---6-6-6-6-9---9-9-9-9-11--11-11-11-11--| 
D#|------------------------------------------------------| 

d#|--------------------------------------------.--------| 
Bb|-----------------------------------------------------| 
F#|-----------------------------------------------------| 
C#|-9---9-9-9-9-9---9-9-9-9-9---9-9-9-9-9---9--9--9--9--| 
G#|-7---7-7-7-7-7---7-7-7-7-7---7-7-7-7-7---7--7--7--7--| 
D#|-8---8-8-8-8-7---7-7-7-7-5---5-5-5-5-10--10-10-10-10-| 

d#|--------------------------------------------------| 
Bb|--------------------------------------------------| 
F#|--------------------------------------------------| 
C#|-9---9-9---9-9---9-9-9-9-9---9-9---9-9---9-9-9-9--| 
G#|-7---7-7---7-7---7-7-7-7-7---7-7---7-7---7-7-7-7--| 
D#|-7---7-7---7-7---7-7-7-7-7---7-7---7-7---7-7-7-7--| 

Chorus II: 
d#|--------------------------------------------------| 
Bb|--------------------------------------------------| 
F#|--------------------------------------------------| 
C#|-7------------------------------------------------| 
G#|-7---7---7---7---7---7---7---7---7---7---7---7----| 
D#|-5---5---5---5---5---5---5---5---5---5---5---5----| 
        .   .   .   .   .   .   .   .   .   .   . 
d#|--------------------------------------------------| 
Bb|--------------------------------------------------| 
F#|--------------------------------------------------| 
C#|-10-----------------------------------------------| 
G#|-10--10--10--10--10--10--10--10--10--10--10--10---| 
D#|-8---8---8---8---8---8---8---8---8---8---8---8----| 
        .   .   .   .   .   .   .   .   .   .   . 
d#|--------------------------------------------------| 
Bb|--------------------------------------------------| 
F#|--------------------------------------------------| 
C#|--------------------------------------------------| 
G#|-7---7---7---7---7---7---7---7---7---7---7---7----| 
D#|-5---5---5---5---5---5---5---5---5---5---5---5----| 
    .   .   .   .   .   .   .   .   .   .   .   . 
d#|--------------------------------------------------| 
Bb|--------------------------------------------------| 
F#|--------------------------------------------------| 
C#|--------------------------------------------------| 
G#|-10--10--10--10--10--10--10--10--10--10--10--10---| 
D#|-8---8---8---8---8---8---8---8---8---8---8---8----| 
    .   .   .   .   .   .   .   .   .   .   .   . 
d#|-----------------------------------------------------------| 
Bb|-----------------------------------------------------------| 
F#|-----------------------------------------------------------| 
C#|-9---9---9--9--9---9---9--9--9---9---9--9--9---9---9--9----| 
G#|-7---7---7--7--7---7---7--7--10--10--10-10-10--10--10-10---| 
D#|-5---5---5--5--5---5---5--5--8---8---8--8--8---8---8--8----| 

d#|--------------------| 
Bb|--------------------| 
F#|--------------------| 
C#|-12---12--12---12---| 
G#|-12---12--12---12---| 
D#|-10---10--11---11---| 

INTERLUDE: 
d#|-------------0-----0---0-------------0-----0---0--|                      \ 
Bb|-------------0-----0---0-------------0-----0---0--|                      | 
F#|-9---9-9---9-9---9-9-9-9-9---9-9---9-9---9-9-9-9--|                      | 
C#|-9---9-9---9-9---9-9-9-9-9---9-9---9-9---9-9-9-9--|                      | 
G#|-7---7-7---7-7---7-7-7-7-7---7-7---7-7---7-7-7-7--|                      | 
D#|-0---0-0---0-0---0-0-0-0-0---0-0---0-0---0-0-0-0--|                      | 
                                                                            x2 
d#|-----------------0-------0-----0------------------0-------0-----0---|    | 
Bb|-----------------0-------0-----0------------------0-------0-----0---|    | 
F#|-----------------0-------0-----0------------------0-------0-----0---|    | 
C#|-10---10-10---10-10---10-10-10-10-12---12-12---12-12---12-12-12-12--|    |  
G#|-10---10-10---10-10---10-10-10-10-12---12-12---12-12---12-12-12-12--|    | 
D#|-8----8--8----8--8----8--8--8--8--10---10-10---10-10---11-11-11-11--|    / 


d#|----------------------------------------| 
Bb|----------------------------------------| 
F#|----------------------------------------| 
C#|-14---6---13----14----16---16--14--13---| 
G#|-x----x---x-----x-----x----x---x---x----| 
D#|-12---4---11----12----14---14--12--11---| 

d#|------------------------------| 
Bb|------------------------------| 
F#|------------------------------| 
C#|-14---6---13--11-14---16--18--| 
G#|-x----x---x---x--x----x---x---| 
D#|-12---4---11--9--12---14--15--| 

BREAKDOWN: 
d#|---------------------| 
Bb|---------------------| 
F#|---------------------| 
C#|-2---2-----2---2-----| 
G#|-2---2-----2---2-----| 
D#|-0---0-----0---0-----| x4 

d#|-----------------------| 
Bb|-----------------------| 
F#|-----------------------| 
C#|-----------------------| 
G#|-----------------------| 
D#|-4-0--0--0-4--0--5-----| x4 

Bridge: 
d#|-----------------------| 
Bb|-----------------------| 
F#|-----------------------| 
C#|-----------------------| 
G#|-----------------------| 
D#|-4-0--0--0-4--0--5-----| x4 

d#|-----------------------------| 
Bb|-----------------------------| 
F#|-----------------------------| 
C#|-12-12-12-12--12-12--12--12--| 
G#|-----------------------------| 
D#|-----------------------------| x4 

OUTRO: 
d#|--------0------|                       
Bb|--------0------|                       
F#|-9---9--9---9--|                       
C#|-9---9--9---9--|                       
G#|-7---7--7---7--|                       
D#|-0---0--0---0--|                     
                                                                             
d#|----------0---------------0-----------------------------------|     
Bb|----------0---------------0---------12~-----------------------|     
F#|----------0---------------0---------12~-----------------------|     
C#|-10---10-10---10--12---12-12---12---14~-----------------------|     
G#|-10---10-10---10--12---12-12---12---14~-----------------------|     
D#|-8----8--8----8---10---10-11---11---12~-----------------------|     


************************************ 

| /   slide up 
| \   slide down 
| h   hammer-on 
| p   pull-off 
| ~   vibrato 
| +   harmonic 
| x   Mute note 
| b   Bend 
| pb  Pre-bend 
| br  Bend release 
| pbr Pre-bend release 
| brb Bend release bend 

************************************ 
		  

See also:

tabs Kongos - Hey I Dont Know tabs The Mowgli's - Clean Light tabs Dr. Dog - The Truth tabs Kongos - I Dont Mind tabs Kongos - Come With Me Now tabs Los Campesinos - Cemetery Gaits
e-chords

Other versions:

tabs Reuben - Oh The Shame
auto scroll beats size up size down change color hide chords drawings
tab show chords e-chords YouTube Clip e-chords hide all tabs e-chords go to top tab

share