Resgate

home > Resgate

Todo Som Tab

Resgate

Difficulty: BeginnerBeginner

by TimoKara

tuner correct add songbook print version text version save to e-mail
chordsukulelecavacokeyboardtabbassdrumsharmonicsflute Guitar Pro
chords

Todo Som

  		Introdução: 
 
      A                  D/A               A                  D/A 
E |  ------------------------------------------------------------------------------------------------ 
B | --2------2--------3------3--------2------2--------3-----------------5-------3--------------- 
G | --2------2--------2------2--------2------2--------2--------1/2---------2-------2----------- 
D | --2------2--------4------4--------2------2--------4--------3/4------------------------------ 
A | --0------0--------0------0--------0------0--------0------------------------------------------ 
E  | ------------------------------------------------------------------------------------------------ 
 
      A                  D/A              A                  D/A 
E |  --------------------------------------------------------------------------------------5-------- 
B | --2------2--------3------3--------2------2--------3--------3/5-------3---3---3---3-------- 
G | --2------2--------2------2--------2------2--------2--------4/6-------4---4---4---4-------- 
D | --2------2--------4------4--------2------2--------4------------------------------------------ 
A | --0------0--------0------0--------0------0--------0------------------------------------------ 
E  | ------------------------------------------------------------------------------------------------ 
 
      A                   D/A                 A                  D/A 
E |  ------------------------------------------------------------------------------------------------ 
B | --2------2--------3---------3--------2------2--------3--------2/3----2--------------------- 
G | --2------2--------2---------2--------2------2--------2--------3/4----2---1/2-----2--1/2- 
D | --2------2--------4-----4------------2------2--------4---------------------3/4----2---3/4- 
A | --0------0--------0-------------------0------0--------0-------------------------------------- 
E  | ------------------------------------------------------------------------------------------------ 
 
      A                 D/A               A                  D/A 
E |  --------------------------------------------------------------------------------------5-------- 
B | --2------2--------3------3--------2------2--------3--------3/5-------3---3---3---3-------- 
G | --2------2--------2------2--------2------2--------2--------4/6-------4---4---4---4-------- 
D | --2------2--------4------4--------2------2--------4------------------------------------------ 
A | --0------0--------0------0--------0------0--------0------------------------------------------ 
E | -------------------------------------------------------------------------------------------------      
 
Obs.: Após executar cada acorde abafar para fazer o efeito. 
 
Riff: 
 
------------------------------------- 
--------3/5-----5-----3-------------- 
------------------------------------- 
----4--------6-----4----------------- 
------------------------------------- 
------------------------------------- 
 

	  

Full key step upFull key step up
Half key step upHalf key step up
Half key step downHalf key step down
Full key step downFull key step down
Search Paypal
auto scroll beats size up size down change color hide chords drawings
tab show chords e-chords YouTube Clip e-chords hide all tabs e-chords go to top tab