Resgate

home > Resgate

Tempo Tab

Resgate

Difficulty: BeginnerBeginner

by TimoKara

tuner correct add songbook print version text version save to e-mail
chordsukulelecavacokeyboardtabbassdrumsharmonicsflute Guitar Pro
chords

Tempo

Key:  F# More
Tempo Key C#C#
Tempo Key DD
Tempo Key D#D#
Tempo Key EE(one step down)
Tempo Key FF(half step down)
Tempo Key F#F#(original key)
Tempo Key GG(half step up)
Tempo Key G#G#(one step up)
Tempo Key AA
Tempo Key A#A#
Tempo Key BB
Tempo Key CC
  		1 guitarra faz isso 3x 
e-------------------------------------------------------------------------------- 
B-------------------------------------------------------------------------------- 
G-------------------------------------------------------------------------------- 
D-7---------------------9-7-------------------7---------------------9-7---------- 
A---9-7-9-7-9-7-------9-----9-7-9-7-9-7---------9-7-9-7-9-7-------9-----9-7-9-7-9 
E---------------9-7-9-------------------9-7-9---------------9-7-9---------------- 
 
na 2X entra a outra fazendo a Base F#m A Bm F#m 
 
F#m                Bm           F#m F#m 
Tudo tem seu tempo determinado 
  1 GUITARRA                                     
G---------------------------------------------- 
D-4--2---------------4--2---------------4------ 
A-4----5-4-3-2-------4----5-4-3-2-------4------ 
E-2------------5-4-3-2------------5-4-3-2------ 
 OUTRA GUITARRA 
e-----------------------0---------------------- 
B-------------------------3-2-1-0-------------- 
G---------------------------------3-2-1-------- 
D-4--2---------------4------------------4------ 
A-4----5-4-3-2-------4------------------4------ 
E-2------------5-4-3-2------------------2------ 
 
F#m              Bm              F#m F#m 
Há tempo pra tudo debaixo do céu 
 
  1 GUITARRA                                     
e---------------------------------------------- 
B---------------------------------------------- 
G---------------------------------------4------ 
D-4--2---------------4--2---------------4------ 
A-4----5-4-3-2-------4----5-4-3-2-------2------ 
E-2------------5-4-3-2------------5-4-3-------- 
 
 OUTRA GUITARRA 
e-----------------------0---------------------- 
B-------------------------3-2-1-0-------------- 
G---------------------------------3-2-1-4------ 
D-4--2---------------4------------------4------ 
A-4----5-4-3-2-------4------------------2------ 
E-2------------5-4-3-2------------------------- 
 
Bm               A    Bm     D   D/E\D/E 
Há tempo de plantar e de colher 
  D   Em  D   Em  
e-2-/-3-\-2-/-3---   pode ser feito em power chord mas assim fica mais parecido, 
B-3-/-5-\-3-/-5---   ou 1 guitarra faz assim e a outra power chord 
G-2-/-4-\-2-/-4--- 
D-0-/-2-\-0-/-2--- 
 
Bm            A     Bm        F#m      G#m       
Há tempo de amar e aborrecer...e aborrecer 
 
   C#m               D#   F#m           A   G#m  
E todo mundo quer saber, quanto tempo ainda resta 
   C#m               D#   F#m          A  Bm   
E todo mundo quer viver, pelo menos 200 anos 
 C#m           D#           F#m  
É preciso entender, que o amor demonstrado 
     A        Bm    
Na cruz traz vida eterna 
 
 2x enquanto a outra faz a base da intro F#m A Bm F#m 
e-------------------------------------------------------------------------------- 
B-------------------------------------------------------------------------------- 
G-------------------------------------------------------------------------------- 
D-7---------------------9-7-------------------7---------------------9-7---------- 
A---9-7-9-7-9-7-------9-----9-7-9-7-9-7---------9-7-9-7-9-7-------9-----9-7-9-7-9 
E---------------9-7-9-------------------9-7-9---------------9-7-9---------------- 
 
 
  F#m               Bm            F#m F#m 
Tudo tem seu tempo determinado 
  F#m              Bm                 F#m F#m 
Há tempo pra tudo debaixo do céu 
 Bm              A        Bm   D   
Há tempo de espalhar, de recolher 
 Bm             A       Bm      F#m       G#m       
Há tempo de morrer e de viver...e de viver 
 
   C#m               D#   F#m           A   G#m  
E todo mundo quer saber, quanto tempo ainda resta 
   C#m               D#   F#m          A  Bm   
E todo mundo quer viver, pelo menos 200 anos 
 C#m           D#           F#m  
É preciso entender, que o amor demonstrado 
     A        Bm    
Na cruz traz vida eterna 
 
 
SOLO   ** O 1º bend da casa 9 ja deve ser armado antes de tocar e soar descendo 
       ** A base durante o solo e igual da intro F#m A Bm F#m          
                                                               02:44 
e--------------------------------------------------------------------------------- 
B-------7---------------------------12^12-10-----------10----12^-12--10----------- 
G^9---9---9-8-6------------------------------11--9-11-----11---------------------- 
D---------------9-8--------------------------------------------------------------- 
A--------------------9--7/9--7-9-------------------------------------------------- 
E--------------------------------------------------------------------------------- 
                                                             02:51                    
e--------------------------------------------------------------------------------- 
B-7--------------------------12------12------11------11--------10-----10--12^12-10 
G---9-8----------11----9-10-----9-10----9-11----9-11-----9-11-----11-------------- 
D-------10-9-7/8------------------------------------------------------------------ 
A--------------------------------------------------------------------------------- 
E--------------------------------------------------------------------------------- 
 
e-----14-----14-----14-----14-----14-----14-----14-----17^-17-14-17--19-19^------- 
B-17^----17^----17^----17^----17^----17^----17^----17^---------------------------- 
G--------------------------------------------------------------------------------- 
D--------------------------------------------------------------------------------- 
A--------------------------------------------------------------------------------- 
E--------------------------------------------------------------------------------- 
02:57 
e--------------------------------------------------------------------------------- 
B--------------------------------------------------------------------------------- 
G14-------------------------------16-14------------------------------------------- 
D--16-14-16--14-16-14----------16--------16-14-16--14-16-14----------------------- 
A---------------------16-14-16-----------------------------16-14-16--------------- 
E--------------------------------------------------------------------------------- 
                                                                   
e--------------------------------------------------------------------------------- 
B----------------------------------------------------------17^-------------------- 
G14--------------------------------16-14------------------------------------------ 
D---16-14-16--14-16-14----------16-------16-14-16--14-16-------------------------- 
A----------------------16-14-16--------------------------------------------------- 
E--------------------------------------------------------------------------------- 
03:08  
e--------------------------------------------------------------------------------- 
B--------------------------------------------------------------------------------- 
G14--------------------------------16-14------------------------------------------ 
D---16-14-16--14-16-14----------16-------16-14-16--14-16-14----------------------- 
A----------------------16-14-16-----------------------------16-14-16-------------- 
E--------------------------------------------------------------------------------- 
 
e--------------------------------------------------------------------------------- 
B--------------------------------------------------------------------------------- 
G14--------------------------------16-14------------------------------------------ 
D---16-14-16--14-16-14----------16-------16-14-16--14-16-------------------------- 
A----------------------16-14-16--------------------------------------------------- 
E--------------------------------------------------------------------------------- 
  Nao adianta voltar o relogio p/ tras 
e--------------------------------------------------------------------------------- 
B--------------------------------------------------------------------------------- 
G---6--------------4-----------------7-------------6------------------------------ 
D---6--------------4-----------------7-------------6------------------------------ 
A---4--------------2-----------------5---4-3--3-2--4------------------------------ 
E--------------------------------------------------------------------------------- 
 
 C#m            Bm                   D  C#m C  C Bm  C#m 
Não adianta voltar o relógio pra trás 
                 Bm 
O que passou, passou 
            F#m              G#m 
Não volta mais...não volta mais 
 
   C#m               D#   F#m           A   G#m  
E todo mundo quer saber, quanto tempo ainda resta 
   C#m               D#   F#m          A  Bm   
E todo mundo quer viver, pelo menos 200 anos 
 C#m           D#           F#m  
É preciso entender, que o amor demonstrado 
     A        Bm    
Na cruz traz vida eterna 
 
 
 
 e no final faz mais algumas vezes, junto com a base da intro 
e-------------------------------------------------------------------------------- 
B-------------------------------------------------------------------------------- 
G-------------------------------------------------------------------------------- 
D-7---------------------9-7-------------------7---------------------9-7---------- 
A---9-7-9-7-9-7-------9-----9-7-9-7-9-7---------9-7-9-7-9-7-------9-----9-7-9-7-9 
E---------------9-7-9-------------------9-7-9---------------9-7-9---------------- 
 
 

	  

Search Paypal
auto scroll beats size up size down change color hide chords drawings
tab show chords e-chords YouTube Clip e-chords hide all tabs e-chords go to top tab