Resgate

home > Resgate

Rock da Vovů Tab

Resgate

Difficulty: IntermediateIntermediate

by TimoKara

tuner correct add songbook print version text version save to e-mail
chordsukulelecavacokeyboardtabbassdrumsharmonicsflute Guitar Pro
chords

Rock da Vovů

  		IntroduÁ„o (Guitarra) 
 
E|------------------------------------------12---9---------------9---12------------------------| 
B|---------------------------------------------------------------------------------------------|    
G|-9--11--13--11--9--11--13--11----------------------9--11--13--9--------11---13--11--9--9--11-| 
D|---------------------------------------------------------------------------------------------|   
A|---------------------------------------------------------------------------------------------|   
E|---------------------------------------------------------------------------------------------|   
 
 
E|----------------------------------------------------------------------------------------------| 
B|----------------------------------------------------------------------------------------------| 
G|-9--9--11--9--9--11--13--13--11--11--9--9--11--9--9--11--9--9--11--13--13--11--11-------------| 
D|----------------------------------------------------------------------------------------------|   
A|----------------------------------------------------------------------------------------------|   
E|----------------------------------------------------------------------------------------------|  
 
 
E|--------------------------------------------| 
B|--------------------------------------------| 
G|-9--9--------------9------------9--9--------| 
D|-------11--9-----11--9--11-----11---9-------| 
A|--------------------------------------------| 
E|--------------------------------------------| 

	  

Search Paypal
auto scroll beats size up size down change color hide chords drawings
tab show chords e-chords YouTube Clip e-chords hide all tabs e-chords go to top tab