Resgate

home > Resgate

O Meu Lugar Tab

Resgate

Difficulty: BeginnerBeginner

by thamer%5Fvh

tuner correct add songbook print version text version save to e-mail
chordsukulelecavacokeyboardtabbassdrumsharmonicsflute Guitar Pro
chords

O Meu Lugar

  		O meu lugar 
Resgate 
 
 
Riff1 
e|--------------------------------0------ 
b|--------3---------3---------3-----3---- 
g|------0---0-----0---0-----0---0-----0-- 
d|----4---------4---------4-------------- 
a|--5---------4---------3---------------- 
e|--------------------------------------- 
 
Riff2 
e|---------------------------------0----- 
b|--------3---------3---------3----3----- 
g|------0---0-----0---0-----0---0-------- 
d|----4---------4---------4-------------- 
a|--2---------5---------2---------------- 
e|--------------------------------------- 
 
Riff3 
e|--------------------------------------- 
b|--------------------------------------- 
g|--5-4---------------------------------- 
d|------2-------------------------------- 
a|--3-2-2-------------------------------- 
e|------0-------------------------------- 
 
Riff4 
e|--------------------------------------- 
b|--------------------------------------- 
g|--------------------------------------- 
d|--------------------------------------- 
a|------2-3-5----3-2-----3--2------------ 
e|--3-5---------------5--------3--------- 
 
 
Introdução 2x o Riff1 
 
Riff1 
Dor constante minha mente sem um farol 
Riff1 
E eu só quero um lugar pra descansar 
Riff1 
A minha bússola não tem mais pra onde apontar 
Riff2 
E o tempo não passa 
 
Riff3              G     C9 
      Tudo que eu tenho 
Riff3         G     C9 
      Uma certeza 
 
    G             D              C9 
Eu não descanso quando fecho os meus olhos 
    G            D          C9 
Um som de morte soa contra minha paz 
  G              D         C9 
Transbordando o cálice do meu pranto 
Riff4 
E não há lugar onde descansar 
 
Riff1-1x 
 
Riff1 
Tua mente tão mais alta me faz sonhar 
Riff1 
O sacrifício, o princípio e o fim 
Riff1 
Meu coração conhece e segue a tua voz 
Riff2 
A tua sombra e meu descanso  
 
Riff3           G     C9 
       A minha fonte 
Riff3          G     C9 
       Uma certeza 
 
   G              D          C9 
O meu socorro no piscar dos meus olhos 
   G                   D                C9 
A minha paz ouvindo ouvindo o som da a Tua voz 
     G           D          C9 
E a Tua mão pra dissipar o meu pranto 
Riff4 
És o meu lugar onde descansar 
 
Solo 
	  

Full key step upFull key step up
Half key step upHalf key step up
Half key step downHalf key step down
Full key step downFull key step down
Search Paypal
auto scroll beats size up size down change color hide chords drawings
tab show chords e-chords YouTube Clip e-chords hide all tabs e-chords go to top tab