Resgate

home > Resgate

Meus Pés Tab

Resgate

Difficulty: AdvancedAdvanced

by bury777

tuner correct add songbook print version text version save to e-mail
chordsukulelecavacokeyboardtabbassdrumsharmonicsflute Guitar Pro
chords

Meus Pés

  		RIFF principal usado na introdução e em praticamente toda a música. 

e---------------------------------| 
b---------------------------------| 
g--------------5-7---5------------| 
d-----7--7---7-----5---7----------| 
a--5-------5----------------------| 
E---------------------------------| 

e---------------------------------| 
b---------------------------------| 
g--------------5-7---5------------| 
d-----7--7---7-----5---7----------| 
a--5-------5----------------------| 
E---------------------------------| 

e---------------------------------| 
b---------------------------------| 
g--------------5-7---5------------| 
d-----7--7---7-----5---7----------| 
a--5-------5----------------------| 
E---------------------------------| 

e---------------------------------| 
b----------------8----------------| 
g------------10-----10-8-10-------| 
d-----7--7-------------------10---| 
a--5-------5----------------------| 
E---------------------------------| 

Guilherme Bury([email protected]) 
	  

Search Paypal
auto scroll beats size up size down change color hide chords drawings
tab show chords e-chords YouTube Clip e-chords hide all tabs e-chords go to top tab