Resgate

home > Resgate

A Voz do Deserto Tab

Resgate

Difficulty: nolevelnolevel

by FilG3

tuner correct add songbook print version text version save to e-mail
chordsukulelecavacokeyboardtabbassdrumsharmonicsflute Guitar Pro
chords

A Voz do Deserto

  		E||-----------------------------------------------------------------------12b-12-12|
B||-----9-9h10p9-10/12-12-12-12-----9-9h10p9-9---------------------9h10p9----------|
G||---9---------------------------9----------9-11--------11b-9---9-----------------|
D||-9---------------------------9--------------11-9h11p9-------9-------------------|
A||--------------------------------------------------------------------------------|
E||--------------------------------------------------------------------------------|

E||-9------------------------------------------------------------------------------|
B||-9------------------------------------------------------------------------------|
G||-11b-11b-9-8-8h11p8------------8/9-9--------------------------------------------|
D||--------------------11-9-7/9-9--------------------------------------------------|
A||--------------------------------------------------------------------------------|
E||--------------------------------------------------------------------------------|


Solo final
E||--------------------------------------------------------------------------------|
B||-----9-9h10p9-10/12-12-12------9-9h10p9-----------------------------------------|
G||---9-------------------------9---------------11b-9-----9-9h10p9-10/12-12-9/10-9-|
D||-9-------------------------9------------11-9---------9--------------------------|
A||---------------------------------------------------9----------------------------|
E||--------------------------------------------------------------------------------|

E||--------------------------------------------------------------------------------|
B||--------------------------------------------------------------------------------|
G||-11-9---------------------------------------------------------------------------|
D||------9h11p9--------------------------------------------------------------------|
A||--------------------------------------------------------------------------------|
E||--------------------------------------------------------------------------------|

	  

Search Paypal
auto scroll beats size up size down change color hide chords drawings
tab show chords e-chords YouTube Clip e-chords hide all tabs e-chords go to top tab