Resgate

home > Resgate

5:50 AM Tab

Resgate

Difficulty: ExpertExpert

by fElLiPiNhO

tuner correct add songbook print version text version save to e-mail
chordsukulelecavacokeyboardtabbassdrumsharmonicsflute Guitar Pro
chords

5:50 AM

Key:  Em More
5:50 AM Key BmBm
5:50 AM Key CmCm
5:50 AM Key C#mC#m
5:50 AM Key DmDm(one step down)
5:50 AM Key D#mD#m(half step down)
5:50 AM Key EmEm(original key)
5:50 AM Key FmFm(half step up)
5:50 AM Key F#mF#m(one step up)
5:50 AM Key GmGm
5:50 AM Key G#mG#m
5:50 AM Key AmAm
5:50 AM Key A#mA#m
  		Introdução:G Bm Am7 
 
            G Bm Am7                      Em(em dedilhado) 
e ----------3--2--0--|        |---------------| 
B ----------3--3--1--|        |---------------| 
G ------0---0--4--0--|(4X)    |---------------| 
D --0h2---0-0--4--2--|        |--0h2-0h2-0----| 
A ----------2--2--0--|        |---------------| 
E ----------3--------|        |---------------| 
 
Solo: 
 
e -------------------------------------------------------------------- 
B ---------------10-12/13-12---8/10/8------------10/12-10-8/10-8------ 
G --------10-12-------------------------7h9-7------------------------- 
D -10-12-------------------------------------------------------------- 
A--------------------------------------------------------------------- 
E -------------------------------------------------------------------- 
 
e -------------------------------------------------------------------- 
B ------------------------------------------12-13-14-15--13p12-------- 
G -7/9-7/9-7-5/0----------------------12-14--------------------------- 
D ----------------------7-9-10--12-14---------------------------------- 
A ------------------7-9----------------------------------------------- 
E -------------------------------------------------------------------- 
 
e --------------------------------------------------------------------- 
B -13p12--------------------------------------------------------------- 
G -------14-12-13b-12--12-14-12--12----------------------7/9-7--------- 
D ----------------------------------14-12------------------------------ 
A ----------------------------------------14-12--12/10---5/7-5--0-2-3-- 
E ---------------------------------------------------------------------  ... 
 
 

	  

Full key step upFull key step up
Half key step upHalf key step up
Half key step downHalf key step down
Full key step downFull key step down
Search Paypal
auto scroll beats size up size down change color hide chords drawings
tab show chords e-chords YouTube Clip e-chords hide all tabs e-chords go to top tab