REM

home > REM

The Great Beyond Tab

REM

Difficulty: BeginnerBeginner

tuner correct add songbook print version text version save to e-mail
chordsukulelecavacokeyboardtabbassdrumsharmonicsflute Guitar Pro
chords

The Great Beyond

  		 
VERSE 
    Am7                     Dsus2 
E||--0------0------0--0--|--0------0----0--0--0--|--0------0------0--0--| 
B||--1------1------1--0--|--3------3----3--3--0--|--1------1------1--0--| 
G||--0------0------0--0--|--2------2----2--2--0--|--0------0------0--0--| 
D||--2------2------2--0--|--0------0----0--0--0--|--2------2------2--0--| 
A||--0------0------0--0--|-----------------------|--0------0------0--0--| 
E||----------------------|-----------------------|----------------------| 
 
--0------0------0--0--|| 
--3------3------3--0--|| 
--2------2------2--0--|| guitar 1 
--0------0------0--0--|| 
----------------------|| 
----------------------|| 
 
-----0----------------|| 
---------3------------|| 
--------------2-------|| 
----------------------||  guitar 2 (riff A)  the guitar is absent from most 
----------------------||   of the verse, but this riff is played 
----------------------|| 
 
 
--x-x-x-x-|-0-0-0-0-|-x-x-x-x-|-0-0-------------------------------------------| 
--5-5-5-5-|-3-3-3-3-|-5-5-5-5-|-3--3------------------------------------------| 
--5-5-5-5-|-2-2-2-2-|-5-5-5-5-|-2---2-----------------------------------------| 
--5-5-5-5-|-0-0-0-0-|-5-5-5-5-|-0----0----------------------------------------| 
--x-x-x-x-|---------|-x-x-x-x-|-----------------------------------------------| 
--5-5-5-5-|---------|-5-5-5-5-|-----------------------------------------------| 
 Am7        D5        Am7       D5 (Riff A) 
This is the Intro and Verse Progression. 
 
-0-0-0-0-|-0-0-0-0-|-0-0-0-0-|-0-0-0-0-|-0-0-0-0-|-0-0-0-0-|-3-3-3-3-3-3-3-3--| 
-1-1-1-1-|-1-1-1-1-|-1-1-1-1-|-1-1-1-1-|-1-1-1-1-|-1-1-1-1-|-3-3-3-3-3-3-3-3--| 
-0-0-0-0-|-2-2-2-2-|-0-0-0-0-|-2-2-2-2-|-0-0-0-0-|-2-2-2-2-|-0-0-0-0-0-0-0-0--| 
-2-2-0-0-|-2-2-2-2-|-2-2-0-0-|-2-2-2-2-|-2-2-0-0-|-2-2-2-2-|-0-0-0-0-0-0-0-0--| 
-3-3-2-2-|-0-0-0-0-|-3-3-2-2-|-0-0-0-0-|-3-3-2-2-|-0-0-0-0-|-2-2-2-2-2-2-2-2--| 
---------|---------|---------|---------|---------|---------|-3-3-3-3-3-3-3-3--| 
 C   C/B   Am        C   C/B   Am        C   C/B   Am        G 
This is the Pre-Chorus Progression 
"I'm pushing elephants up the stairs.............." 
 
-0-0-0-0-|-3-3-2-2-|-0-0-0-0-|-3-3-0-0-|-0-0-0-0-|-3-3-2-2-|-0-0-0-0-0-0-0-0--| 
-1-1-1-1-|-3-3-3-3-|-1-1-1-1-|-3-3-1-1-|-1-1-1-1-|-3-3-3-3-|-1-1-1-1-1-1-1-1--| 
-0-0-0-0-|-0-0-2-2-|-0-0-0-0-|-0-0-0-0-|-0-0-0-0-|-0-0-2-2-|-0-0-0-0-0-0-0-0--| 
-2-2-0-0-|-0-0-0-0-|-2-2-0-0-|-0-0-2-2-|-2-2-0-0-|-0-0-0-0-|-2-2-2-2-2-2-2-2--| 
-3-3-2-2-|-2-2-----|-3-3-2-2-|-2-2-0-0-|-3-3-2-2-|-2-2-----|-3-3-3-3-3-3-3-3--| 
---------|-3-3-----|---------|-3-3-----|---------|-3-3-----|------------------| 
 C   C/B   G   D     C   C/B   G   Am7   C   C/B   G   D     C 
This is the Chorus Progression 
"Im breakin' through..........." 
 
-0-0-0-0-|-0-x-x--------------------------------------------------------------| 
-1-1-1-1-|-1-5-5--------------------------------------------------------------| 
-0-0-0-0-|-0-5-5--------------------------------------------------------------| 
-2-2-2-2-|-0-5-5--------------------------------------------------------------| 
-3-3-3-3-|-2-x-x--------------------------------------------------------------| 
---------|---5-5--------------------------------------------------------------| 
 C        C/B  Am7 
 
 
_______________________________________________________ 
Contribuição: Rodolpho Carvalho([email protected]) 

	  

Full key step upFull key step up
Half key step upHalf key step up
Half key step downHalf key step down
Full key step downFull key step down
Search Paypal
auto scroll beats size up size down change color hide chords drawings
tab show chords e-chords YouTube Clip e-chords hide all tabs e-chords go to top tab