REM

home > REM

Bittersweet Me Tab

REM

Difficulty: nolevelnolevel

tuner correct add songbook print version text version save to e-mail
chordsukulelecavacokeyboardtabbassdrumsharmonicsflute Guitar Pro
chords

Bittersweet Me

  		 
|----------------|----------------|--------------0-|---------------- 
|----------------|----------------|--------------0-|---------------- 
|------0---------|----------------|------0-------0-|---------------- 
|----4-----4---2-|----------------|----4-----4---2-|---------------- 
|--5-----------2-|----------------|--5-----------2-|---------------- 
|5-------------0-|----------------|5-------------0-|---------------- 
 
 
 Dsus4         Em                  Dsus4         Em 
 1 a 2 a 3 a 4 a  1 a 2 a 3 a 4 a  1 a 2 a 3 a 4 a  1 a 2 a 3 a 4 a 
|--------------0-|----------0-0---|--------------0-|--0-0---0---0--- 
|--------------0-|----------0-0---|--------------0-|--0-0---0---0--- 
|------0-------0-|----------0-0---|------0-------0-|--0-0---0---0--- 
|----4-----4---2-|----------------|----4-----4---2-|---------------- 
|--5-----------2-|----------------|--5-----------2-|---------------- 
|5-------------0-|----------------|5-------------0-|---------------- 
 
 F                F/A              Dm               C 
 1 a 2 a 3 a 4 a  1 a 2 a 3 a 4 a  1 a 2 a 3 a 4 a  1 a 2 a 3 a 4 a 
|------1---------|------1---------|------1---------|------3--------- 
|----1-----1-----|----1-----1-----|----3-----3-----|----1-----1----- 
|----------------|----------------|----------------|---------------- 
|----------------|----------------|0---------------|---------------- 
|----------------|0---------------|----------------|3--------------- 
|1---------------|----------------|----------------|---------------- 
 
 F                F/A              Dm               G 
 1 a 2 a 3 a 4 a  1 a 2 a 3 a 4 a  1 a 2 a 3 a 4 a  1 a 2 a 3 a 4 a 
|------1---------|------1---------|------1---------|------3--------- 
|----1-----1-----|----1-----1-----|----3-----3-----|----3-----3----- 
|----------------|----------------|----------------|---------------- 
|----------------|----------------|0---------------|---------------- 
|----------------|0---------------|----------------|---------------- 
|1---------------|----------------|----------------|3--------------- 
 
 
 
CHORUS:  (heavy distortion) 
 A5      G5                    
 1 a 2 a 3 a 4 a  1 a 2 a 3 a 4 a   
|----------------|---------------- 
|----------------|---------------- 
|----------------|--0-------0-----   x 3, then: 
|7---7---5---5-0h|2-----0h2---2p0- 
|7---7---5---5---|---------------- 
|5---5---3---3---|---------------- 
 
 Dm               C 
 1 a 2 a 3 a 4 a  1 a 2 a 3 a 4 a   
|------1-------1-|------0-------0- 
|----3-------3---|----1-------1--- 
|--0-------0-----|--0-------0----- 
|----------------|---------------- 
|----------------|---------------- 
|----------------|---------------- 
 
 
_______________________________________________________ 
Contribuição: Rodolpho Carvalho([email protected]) 

	  

Full key step upFull key step up
Half key step upHalf key step up
Half key step downHalf key step down
Full key step downFull key step down
Search Paypal
auto scroll beats size up size down change color hide chords drawings
tab show chords e-chords YouTube Clip e-chords hide all tabs e-chords go to top tab