REM

home > REM

Alligator Aviator Autopilot Antimatter Tab

REM

Difficulty: nolevelnolevel

by ubirbomfim

tuner correct add songbook print version text version save to e-mail
chordsukulelecavacokeyboardtabbassdrumsharmonicsflute Guitar Pro
chords

Alligator Aviator Autopilot Antimatter

  		
Intro/ Riff 
e|----------------------| 
B|----------------------| 
G|------0---0---0-------| 
D|--7-5------0-0-0------| 
A|-0---7-7-5--3----0----| 
E|----------------------| 

Verse 
e|-5---3-5---| 
B|-5---3-7---| 
G|-6---4-7---| 
D|-7---5-7---| 
A|-7---5-5---| 
E|-5---3-5---| 

Bridge to Chorus 
Guitar 1 
e|-5---5--| 
B|-5---7--| 
G|-6---7--| 
D|-7---7--| 
A|-7---5--| 
E|-5---5--| 
Guitar 2 
e|-0---0--| 
B|-5---7--| 
G|-6---7--| 
D|--------| 
A|--------| 
E|--------| 

Chorus 
e|-5---7---10---12---5---3---5---7---10---12---5-| 
B|-5---7---10---12---5---3---5---7---10---12---5-| 
G|-6---8---11---13---6---4---6---8---11---13---6-| 
D|-7---9---12---14---7---5---7---9---12---14---7-| 
A|-7---9---12---14---7---5---7---9---12---14---7-| 
E|-5---7---10---12---5---3---5---7---10---12---5-| 

Lead 
Follows E-D/A x3; G 
e|----------------------------------------| 
B|----------------------------------------| 
G|-------------------------------5-7>9999-| 
D|-7b9-7b9-7b9-7-5-7-5---5-57-5-7---------| 
A|--------------------57h-7---------------| 
E|----------------------------------------| 

e|--------------------------8-7-8>10>12-15-12-17-| 
B|--8-10-13-12-10-10b-8-11-9---------------------| 
G|-9-9-----------------10------------------------| 
D|-----------------------------------------------| 
A|-----------------------------------------------| 
E|-----------------------------------------------| 

e|-15-12-10-12b-10-8-10-12h-10-8-10p-7-8p-7-5-3-5---0--| 
B|--------------------------------------------------5--| 
G|-----------------------------------------------------| 
D|-----------------------------------------------------| 
A|-----------------------------------------------------| 
E|-----------------------------------------------------| 

End on A. 
	  

Full key step upFull key step up
Half key step upHalf key step up
Half key step downHalf key step down
Full key step downFull key step down
Search Paypal
auto scroll beats size up size down change color hide chords drawings
tab show chords e-chords YouTube Clip e-chords hide all tabs e-chords go to top tab