Regurgitator

Robot

Regurgitator

tabs

save to print version add songbook text version e-mail correct tuner
chordsukulelecavacokeyboardtabbassdrumsharmonicaflute Guitar Pro
close

there isn't a video lesson for this song

chords

Robot

	  		All I can say is that Tim Miles is the best bass tabby I've ever seen 
and this song rocks. The Gurge definately need to put this on their next 
album and release a single and then they would be at Korn standard. So i 
won't keep blabbering on......here it is. 
 
Intro 
Verse 1 
Chorus 
Verse 2 
Interlude 
Guitar solo 
Verse 3 
Chorus 
Outro 
 
Intro/Pre Verse: 
E---------------- 
B---------------- 
G---------------- 
D-6-7-7-7----- 
A-6-7-7-7----- 
E-4-5-5-5----- 
 
Verses: 
E--------------------------------------------- 
B--------------------------------------------- 
G------------7-7-7-7--------------9-9-9-9- 
D-7-7-7-7--7-7-7-7--7-7-7-7--9-9-9-9- 
A-7-7-7-7--5-5-5-5--7-7-7-7--7-7-7-7- 
E-5-5-5-5--------------5-5-5-5------------ 
 
Chorus (NO! NO!): 
E---------------------------------------- 
B---------------------------------------- 
G-------7-7--------7-7------7-----7- 
D-7-7--7-7--7-7--7-7--7--7--7--7- 
A-7-7--5-5--7-7--5-5--7--5--7--5- 
E-5-5---------5-5--------5-----5----- 
 
 
 
Interlude: 
E-------------------------------------------- 
B-------------------------------------------- 
G--------------------------------------7----- 
D-9-9-9-9-5-5-5-5-7-7-7-7-7-7-7-7-- 
A-9-9-9-9-5-5-5-5-7-7-7-7-7-7-5-7-- 
E-7-7-7-7-3-3-3-3-5-5-5-5-5-5----5- 
 
Verse 3: 
E-------------------- 
B-------------------- 
G-----7--------9---- 
D-7---7---7---9---- 
A-7---5---7---7---- 
E-5--------5-------- 
 
Outro: 
E------------------------ 
B------------------------ 
G-9-9-9-9-9-7-6-4-2- 
D-9-9-9-9-9-7-6-4-2- 
A-7-7-7-7-7-5-4-2-0- 
E------------------------- 
 
 
 

		  

See also:

tabs Lee Kernaghan - Hat Town tabs Grinspoon - Chemical Heart tabs The Vines - Ride (ver. 2) tabs Miscellaneous / Australiana - Advance Australia Fair tabs Ganggajang - Hundreds of Languages tabs Xavier Rudd - Solace
e-chords

Other versions:

tabs One Dollar Short - Robot tabs Regurgitator - Robot tabs Nada Surf - Robot tabs Scorpions - Robot Man tabs Aspiring Superheroes - Robot Party tabs Washya - Robot Rock
auto scroll beats size up size down change color hide chords drawings
tab show chords e-chords YouTube Clip e-chords hide all tabs e-chords go to top tab

share